  0
SECTION
  2
HEADER
  9
$ACADVER
  1
AC1027
  9
$ACADMAINTVER
 70
   125
  9
$DWGCODEPAGE
  3
ANSI_1252
  9
$LASTSAVEDBY
  1
danielle
  9
$REQUIREDVERSIONS
160
                 0
  9
$INSBASE
 10
0.0
 20
0.0
 30
0.0
  9
$EXTMIN
 10
-6.663103192211352
 20
-5.516030663044006
 30
0.0
  9
$EXTMAX
 10
6.446368721214824
 20
6.395460662450183
 30
0.0
  9
$LIMMIN
 10
-3.821882638888888
 20
-5.256784722222221
  9
$LIMMAX
 10
3.821882638888888
 20
5.256784722222221
  9
$ORTHOMODE
 70
     0
  9
$REGENMODE
 70
     1
  9
$FILLMODE
 70
     1
  9
$QTEXTMODE
 70
     0
  9
$MIRRTEXT
 70
     0
  9
$LTSCALE
 40
1.0
  9
$ATTMODE
 70
     1
  9
$TEXTSIZE
 40
0.093
  9
$TRACEWID
 40
0.05
  9
$TEXTSTYLE
  7
Standard
  9
$CLAYER
  8
0
  9
$CELTYPE
  6
Continuous
  9
$CECOLOR
 62
   256
  9
$CELTSCALE
 40
1.0
  9
$DISPSILH
 70
     0
  9
$DIMSCALE
 40
1.0
  9
$DIMASZ
 40
0.18
  9
$DIMEXO
 40
0.0625
  9
$DIMDLI
 40
0.38
  9
$DIMRND
 40
0.0
  9
$DIMDLE
 40
0.0
  9
$DIMEXE
 40
0.18
  9
$DIMTP
 40
0.0
  9
$DIMTM
 40
0.0
  9
$DIMTXT
 40
0.18
  9
$DIMCEN
 40
0.09
  9
$DIMTSZ
 40
0.0
  9
$DIMTOL
 70
     0
  9
$DIMLIM
 70
     0
  9
$DIMTIH
 70
     1
  9
$DIMTOH
 70
     1
  9
$DIMSE1
 70
     0
  9
$DIMSE2
 70
     0
  9
$DIMTAD
 70
     0
  9
$DIMZIN
 70
     0
  9
$DIMBLK
  1

  9
$DIMASO
 70
     1
  9
$DIMSHO
 70
     1
  9
$DIMPOST
  1

  9
$DIMAPOST
  1

  9
$DIMALT
 70
     0
  9
$DIMALTD
 70
     2
  9
$DIMALTF
 40
25.4
  9
$DIMLFAC
 40
1.0
  9
$DIMTOFL
 70
     0
  9
$DIMTVP
 40
0.0
  9
$DIMTIX
 70
     0
  9
$DIMSOXD
 70
     0
  9
$DIMSAH
 70
     0
  9
$DIMBLK1
  1

  9
$DIMBLK2
  1

  9
$DIMSTYLE
  2
Standard
  9
$DIMCLRD
 70
     0
  9
$DIMCLRE
 70
     0
  9
$DIMCLRT
 70
     0
  9
$DIMTFAC
 40
1.0
  9
$DIMGAP
 40
0.09
  9
$DIMJUST
 70
     0
  9
$DIMSD1
 70
     0
  9
$DIMSD2
 70
     0
  9
$DIMTOLJ
 70
     1
  9
$DIMTZIN
 70
     0
  9
$DIMALTZ
 70
     0
  9
$DIMALTTZ
 70
     0
  9
$DIMUPT
 70
     0
  9
$DIMDEC
 70
     4
  9
$DIMTDEC
 70
     4
  9
$DIMALTU
 70
     2
  9
$DIMALTTD
 70
     2
  9
$DIMTXSTY
  7
Standard
  9
$DIMAUNIT
 70
     0
  9
$DIMADEC
 70
     0
  9
$DIMALTRND
 40
0.0
  9
$DIMAZIN
 70
     0
  9
$DIMDSEP
 70
     0
  9
$DIMATFIT
 70
     3
  9
$DIMFRAC
 70
     0
  9
$DIMLDRBLK
  1

  9
$DIMLUNIT
 70
     2
  9
$DIMLWD
 70
     0
  9
$DIMLWE
 70
     0
  9
$DIMTMOVE
 70
     0
  9
$DIMFXL
 40
1.0
  9
$DIMFXLON
 70
     0
  9
$DIMJOGANG
 40
0.7853981633974483
  9
$DIMTFILL
 70
     0
  9
$DIMTFILLCLR
 70
     0
  9
$DIMARCSYM
 70
     0
  9
$DIMLTYPE
  6

  9
$DIMLTEX1
  6

  9
$DIMLTEX2
  6

  9
$DIMTXTDIRECTION
 70
     0
  9
$LUNITS
 70
     2
  9
$LUPREC
 70
     4
  9
$SKETCHINC
 40
0.1
  9
$FILLETRAD
 40
0.0
  9
$AUNITS
 70
     0
  9
$AUPREC
 70
     0
  9
$MENU
  1
acad
  9
$ELEVATION
 40
0.0
  9
$PELEVATION
 40
0.0
  9
$THICKNESS
 40
0.0
  9
$LIMCHECK
 70
     0
  9
$CHAMFERA
 40
0.0
  9
$CHAMFERB
 40
0.0
  9
$CHAMFERC
 40
0.0
  9
$CHAMFERD
 40
0.0
  9
$SKPOLY
 70
     0
  9
$TDCREATE
 40
2414622.957627315
  9
$TDUCREATE
 40
10817209.81922416
  9
$TDUPDATE
 40
2460577.501087963
  9
$TDUUPDATE
 40
2460577.667754630
  9
$TDINDWG
 40
5.4730254514
  9
$TDUSRTIMER
 40
5.4730254282
  9
$USRTIMER
 70
     1
  9
$ANGBASE
 50
0.0
  9
$ANGDIR
 70
     0
  9
$PDMODE
 70
     0
  9
$PDSIZE
 40
0.0
  9
$PLINEWID
 40
0.0
  9
$SPLFRAME
 70
     0
  9
$SPLINETYPE
 70
     6
  9
$SPLINESEGS
 70
     8
  9
$HANDSEED
  5
10C7D
  9
$SURFTAB1
 70
     6
  9
$SURFTAB2
 70
     6
  9
$SURFTYPE
 70
     6
  9
$SURFU
 70
     6
  9
$SURFV
 70
     6
  9
$UCSBASE
  2

  9
$UCSNAME
  2

  9
$UCSORG
 10
0.0
 20
0.0
 30
0.0
  9
$UCSXDIR
 10
1.0
 20
0.0
 30
0.0
  9
$UCSYDIR
 10
0.0
 20
1.0
 30
0.0
  9
$UCSORTHOREF
  2

  9
$UCSORTHOVIEW
 70
     0
  9
$UCSORGTOP
 10
0.0
 20
0.0
 30
0.0
  9
$UCSORGBOTTOM
 10
0.0
 20
0.0
 30
0.0
  9
$UCSORGLEFT
 10
0.0
 20
0.0
 30
0.0
  9
$UCSORGRIGHT
 10
0.0
 20
0.0
 30
0.0
  9
$UCSORGFRONT
 10
0.0
 20
0.0
 30
0.0
  9
$UCSORGBACK
 10
0.0
 20
0.0
 30
0.0
  9
$PUCSBASE
  2

  9
$PUCSNAME
  2

  9
$PUCSORG
 10
0.0
 20
0.0
 30
0.0
  9
$PUCSXDIR
 10
1.0
 20
0.0
 30
0.0
  9
$PUCSYDIR
 10
0.0
 20
1.0
 30
0.0
  9
$PUCSORTHOREF
  2

  9
$PUCSORTHOVIEW
 70
     0
  9
$PUCSORGTOP
 10
0.0
 20
0.0
 30
0.0
  9
$PUCSORGBOTTOM
 10
0.0
 20
0.0
 30
0.0
  9
$PUCSORGLEFT
 10
0.0
 20
0.0
 30
0.0
  9
$PUCSORGRIGHT
 10
0.0
 20
0.0
 30
0.0
  9
$PUCSORGFRONT
 10
0.0
 20
0.0
 30
0.0
  9
$PUCSORGBACK
 10
0.0
 20
0.0
 30
0.0
  9
$USERI1
 70
     0
  9
$USERI2
 70
     0
  9
$USERI3
 70
     0
  9
$USERI4
 70
     0
  9
$USERI5
 70
     0
  9
$USERR1
 40
0.0
  9
$USERR2
 40
0.0
  9
$USERR3
 40
0.0
  9
$USERR4
 40
0.0
  9
$USERR5
 40
0.0
  9
$WORLDVIEW
 70
     1
  9
$SHADEDGE
 70
     3
  9
$SHADEDIF
 70
    70
  9
$TILEMODE
 70
     0
  9
$MAXACTVP
 70
    16
  9
$PINSBASE
 10
0.0
 20
0.0
 30
0.0
  9
$PLIMCHECK
 70
     0
  9
$PEXTMIN
 10
-2.534713891749436
 20
0.61571013666277
 30
-0.0015258207003583
  9
$PEXTMAX
 10
3.948974277100901
 20
9.099520373208697
 30
0.0000000349246037
  9
$PLIMMIN
 10
-2.659614726025578
 20
0.4910000306227066
  9
$PLIMMAX
 10
5.840385033678527
 20
11.49099979032681
  9
$UNITMODE
 70
     0
  9
$VISRETAIN
 70
     0
  9
$PLINEGEN
 70
     1
  9
$PSLTSCALE
 70
     0
  9
$TREEDEPTH
 70
  3020
  9
$CMLSTYLE
  2
Standard
  9
$CMLJUST
 70
     0
  9
$CMLSCALE
 40
1.0
  9
$PROXYGRAPHICS
 70
     0
  9
$MEASUREMENT
 70
     0
  9
$CELWEIGHT
370
     0
  9
$ENDCAPS
280
     0
  9
$JOINSTYLE
280
     0
  9
$LWDISPLAY
290
     0
  9
$INSUNITS
 70
     0
  9
$HYPERLINKBASE
  1

  9
$STYLESHEET
  1

  9
$XEDIT
290
     1
  9
$CEPSNTYPE
380
     0
  9
$PSTYLEMODE
290
     0
  9
$FINGERPRINTGUID
  2

  9
$VERSIONGUID
  2
{77D95A0D-849D-7047-9A3B-9151D59DD695}
  9
$EXTNAMES
290
     1
  9
$PSVPSCALE
 40
0.0
  9
$OLESTARTUP
290
     0
  9
$SORTENTS
280
   127
  9
$INDEXCTL
280
     0
  9
$HIDETEXT
280
     0
  9
$XCLIPFRAME
280
     2
  9
$HALOGAP
280
     0
  9
$OBSCOLOR
 70
   257
  9
$OBSLTYPE
280
     0
  9
$INTERSECTIONDISPLAY
280
     0
  9
$INTERSECTIONCOLOR
 70
   257
  9
$DIMASSOC
280
     1
  9
$PROJECTNAME
  1

  9
$CAMERADISPLAY
290
     0
  9
$LENSLENGTH
 40
50.0
  9
$CAMERAHEIGHT
 40
0.0
  9
$STEPSPERSEC
 40
2.0
  9
$STEPSIZE
 40
6.0
  9
$3DDWFPREC
 40
2.0
  9
$PSOLWIDTH
 40
0.25
  9
$PSOLHEIGHT
 40
4.0
  9
$LOFTANG1
 40
1.570796326794896
  9
$LOFTANG2
 40
1.570796326794896
  9
$LOFTMAG1
 40
0.0
  9
$LOFTMAG2
 40
0.0
  9
$LOFTPARAM
 70
     7
  9
$LOFTNORMALS
280
     1
  9
$LATITUDE
 40
37.795
  9
$LONGITUDE
 40
-122.394
  9
$NORTHDIRECTION
 40
0.0
  9
$TIMEZONE
 70
 -8000
  9
$LIGHTGLYPHDISPLAY
280
     1
  9
$TILEMODELIGHTSYNCH
280
     1
  9
$CMATERIAL
347
5FA1
  9
$SOLIDHIST
280
     0
  9
$SHOWHIST
280
     1
  9
$DWFFRAME
280
     2
  9
$DGNFRAME
280
     0
  9
$REALWORLDSCALE
290
     1
  9
$INTERFERECOLOR
 62
     1
  9
$INTERFEREOBJVS
345
5FC3
  9
$INTERFEREVPVS
346
6655
  9
$CSHADOW
280
     0
  9
$SHADOWPLANELOCATION
 40
0.0
  0
ENDSEC
  0
SECTION
  2
CLASSES
  0
CLASS
  1
IMAGE
  2
AcDbRasterImage
  3
ISM
 90
     2175
 91
        0
280
     0
281
     1
  0
CLASS
  1
DICTIONARYVAR
  2
AcDbDictionaryVar
  3
ObjectDBX Classes
 90
        0
 91
       12
280
     0
281
     0
  0
CLASS
  1
RASTERVARIABLES
  2
AcDbRasterVariables
  3
ISM
 90
        0
 91
        1
280
     0
281
     0
  0
CLASS
  1
IMAGEDEF
  2
AcDbRasterImageDef
  3
ISM
 90
        0
 91
        0
280
     0
281
     0
  0
CLASS
  1
IMAGEDEF_REACTOR
  2
AcDbRasterImageDefReactor
  3
ISM
 90
        1
 91
        0
280
     0
281
     0
  0
CLASS
  1
IDBUFFER
  2
AcDbIdBuffer
  3
ObjectDBX Classes
 90
        0
 91
        0
280
     0
281
     0
  0
CLASS
  1
SPATIAL_FILTER
  2
AcDbSpatialFilter
  3
ObjectDBX Classes
 90
        0
 91
        0
280
     0
281
     0
  0
CLASS
  1
SORTENTSTABLE
  2
AcDbSortentsTable
  3
ObjectDBX Classes
 90
        0
 91
        1
280
     0
281
     0
  0
CLASS
  1
LAYER_INDEX
  2
AcDbLayerIndex
  3
ObjectDBX Classes
 90
        0
 91
        0
280
     0
281
     0
  0
CLASS
  1
SPATIAL_INDEX
  2
AcDbSpatialIndex
  3
ObjectDBX Classes
 90
        0
 91
        0
280
     0
281
     0
  0
CLASS
  1
OBJECT_PTR
  2
CAseDLPNTableRecord
  3
"ASE-LPNTableRecord"
 90
        1
 91
        0
280
     0
281
     0
  0
CLASS
  1
PLOTSETTINGS
  2
AcDbPlotSettings
  3
ObjectDBX Classes
 90
        0
 91
        0
280
     0
281
     0
  0
CLASS
  1
ACDBDICTIONARYWDFLT
  2
AcDbDictionaryWithDefault
  3
ObjectDBX Classes
 90
        0
 91
        1
280
     0
281
     0
  0
CLASS
  1
WIPEOUT
  2
AcDbWipeout
  3
WipeOut|Product Desc: Object Enabler for WipeOut entity | Company: Autodesk, Inc. | WEB Address: www.autodesk.com
 90
     2175
 91
        0
280
     0
281
     1
  0
CLASS
  1
WIPEOUTVARIABLES
  2
AcDbWipeoutVariables
  3
"WipeOut|Product Desc:     WipeOut Dbx Application|Company:          Autodesk, Inc.|WEB Address:      www.autodesk.com"
 90
        0
 91
        1
280
     0
281
     0
  0
CLASS
  1
RTEXT
  2
RText
  3
RText|AutoCAD Express Tool|expresstools@autodesk.com
 90
        0
 91
        0
280
     0
281
     1
  0
CLASS
  1
ARCALIGNEDTEXT
  2
AcDbArcAlignedText
  3
ATEXT|AutoCAD Express Tool|expresstools@autodesk.com
 90
        0
 91
        0
280
     0
281
     1
  0
CLASS
  1
TABLESTYLE
  2
AcDbTableStyle
  3
ObjectDBX Classes
 90
     4095
 91
        1
280
     0
281
     0
  0
CLASS
  1
MATERIAL
  2
AcDbMaterial
  3
ObjectDBX Classes
 90
     1153
 91
        3
280
     0
281
     0
  0
CLASS
  1
VISUALSTYLE
  2
AcDbVisualStyle
  3
ObjectDBX Classes
 90
     4095
 91
       26
280
     0
281
     0
  0
CLASS
  1
SCALE
  2
AcDbScale
  3
ObjectDBX Classes
 90
     1153
 91
       33
280
     0
281
     0
  0
CLASS
  1
MLEADERSTYLE
  2
AcDbMLeaderStyle
  3
ACDB_MLEADERSTYLE_CLASS
 90
     4095
 91
        1
280
     0
281
     0
  0
CLASS
  1
CELLSTYLEMAP
  2
AcDbCellStyleMap
  3
ObjectDBX Classes
 90
     1152
 91
        1
280
     0
281
     0
  0
CLASS
  1
AEC_REFEDIT_STATUS_TRACKER
  2
AecDbRefEditStatusTracker
  3
AecArchBase80|Product Desc: Autodesk Architectural Desktop 2007 |Company: Autodesk,Inc. |WEB Address: www.autodesk.com
 90
      129
 91
        0
280
     0
281
     0
  0
CLASS
  1
NPOCOLLECTION
  2
AcDbImpNonPersistentObjectsCollection
  3
ObjectDBX Classes
 90
     1153
 91
        1
280
     0
281
     0
  0
CLASS
  1
ACDBSECTIONVIEWSTYLE
  2
AcDbSectionViewStyle
  3
ObjectDBX Classes
 90
     1025
 91
        1
280
     0
281
     0
  0
CLASS
  1
ACDBDETAILVIEWSTYLE
  2
AcDbDetailViewStyle
  3
ObjectDBX Classes
 90
     1025
 91
        1
280
     0
281
     0
  0
CLASS
  1
EXACXREFPANELOBJECT
  2
ExAcXREFPanelObject
  3
EXAC_ESW
 90
     1025
 91
        1
280
     0
281
     0
  0
CLASS
  1
ACAD_EVALUATION_GRAPH
  2
AcDbEvalGraph
  3
ObjectDBX Classes
 90
     1153
 91
        2
280
     0
281
     0
  0
CLASS
  1
ACAECUSTOBJ
  2
AcAeEditorObj
  3
AcAeEditorObj
 90
     1024
 91
        1
280
     0
281
     0
  0
CLASS
  1
ACDB_DYNAMICBLOCKPURGEPREVENTER_VERSION
  2
AcDbDynamicBlockPurgePreventer
  3
ObjectDBX Classes
 90
     1153
 91
        2
280
     0
281
     0
  0
ENDSEC
  0
SECTION
  2
TABLES
  0
TABLE
  2
VPORT
  5
7
102
{ACAD_XDICTIONARY
360
6038
102
}
330
0
100
AcDbSymbolTable
 70
     1
1001
ACAD
1000
DbSaveVer
1071
      226
  0
VPORT
  5
5F93
330
7
100
AcDbSymbolTableRecord
100
AcDbViewportTableRecord
  2
*Active
 70
     0
 10
0.0
 20
0.0
 11
1.0
 21
1.0
 12
-0.1083672049753961
 22
0.4397150274366926
 13
0.0
 23
0.0
 14
1.0
 24
1.0
 15
0.0
 25
0.0
 16
0.0
 26
0.0
 36
1.0
 17
0.0
 27
0.0
 37
0.0
 40
12.00167179963649
 41
1.926065162907268
 42
50.0
 43
0.0
 44
0.0
 50
0.0
 51
0.0
 71
     0
 72
   100
 73
     1
 74
     0
 75
     0
 76
     0
 77
     0
 78
     0
281
     0
 65
     0
110
0.0
120
0.0
130
0.0
111
1.0
121
0.0
131
0.0
112
0.0
122
1.0
132
0.0
 79
     0
146
0.0
348
5FBF
 60
     3
 61
     5
292
     1
282
     1
141
0.0
142
0.0
 63
   250
421
  3355443
1001
ACAD_NAV_VCDISPLAY
1070
     3
  0
ENDTAB
  0
TABLE
  2
LTYPE
  5
4
330
0
100
AcDbSymbolTable
 70
     2
  0
LTYPE
  5
11
330
4
100
AcDbSymbolTableRecord
100
AcDbLinetypeTableRecord
  2
ByBlock
 70
     0
  3

 72
    65
 73
     0
 40
0.0
  0
LTYPE
  5
12
330
4
100
AcDbSymbolTableRecord
100
AcDbLinetypeTableRecord
  2
ByLayer
 70
     0
  3

 72
    65
 73
     0
 40
0.0
  0
LTYPE
  5
13
330
4
100
AcDbSymbolTableRecord
100
AcDbLinetypeTableRecord
  2
Continuous
 70
     0
  3
Solid line
 72
    65
 73
     0
 40
0.0
  0
ENDTAB
  0
TABLE
  2
LAYER
  5
2
102
{ACAD_XDICTIONARY
360
9B
102
}
330
0
100
AcDbSymbolTable
 70
     5
  0
LAYER
  5
14
102
{ACAD_XDICTIONARY
360
602E
102
}
330
2
100
AcDbSymbolTableRecord
100
AcDbLayerTableRecord
  2
0
 70
     0
 62
     7
  6
Continuous
370
    -3
390
1D
347
5FB1
348
0
  0
LAYER
  5
24
102
{ACAD_XDICTIONARY
360
6030
102
}
330
2
100
AcDbSymbolTableRecord
100
AcDbLayerTableRecord
  2
LAYER_1
 70
     0
 62
     7
  6
Continuous
370
    -3
390
1D
347
5FB1
348
0
  0
LAYER
  5
1BE
102
{ACAD_XDICTIONARY
360
6032
102
}
330
2
100
AcDbSymbolTableRecord
100
AcDbLayerTableRecord
  2
DO NOT PLOT
 70
     0
 62
     2
  6
Continuous
290
     0
370
    -3
390
1D
347
5FB1
348
0
  0
LAYER
  5
386F
330
2
100
AcDbSymbolTableRecord
100
AcDbLayerTableRecord
  2
DEFPOINTS
 70
     0
 62
     7
  6
Continuous
290
     0
370
    -3
390
1D
347
5FB1
348
0
  0
LAYER
  5
E756
330
2
100
AcDbSymbolTableRecord
100
AcDbLayerTableRecord
  2
Layer 1
 70
     0
 62
     7
  6
Continuous
370
    -3
390
1D
347
5FB1
348
0
  0
ENDTAB
  0
TABLE
  2
STYLE
  5
3
330
0
100
AcDbSymbolTable
 70
     3
  0
STYLE
  5
17
330
3
100
AcDbSymbolTableRecord
100
AcDbTextStyleTableRecord
  2
Standard
 70
     0
 40
0.0
 41
1.0
 50
0.0
 71
     0
 42
0.093
  3
txt
  4

  0
STYLE
  5
9A
330
3
100
AcDbSymbolTableRecord
100
AcDbTextStyleTableRecord
  2
STD
 70
     0
 40
0.0
 41
1.0
 50
0.0
 71
     0
 42
0.0
  3
txt
  4

  0
STYLE
  5
FF89
330
3
100
AcDbSymbolTableRecord
100
AcDbTextStyleTableRecord
  2
DynamicDimensions
 70
     0
 40
0.0
 41
1.0
 50
0.0
 71
     0
 42
4.5
  3
arial.ttf
  4

1001
ACAD
1000
Arial
1071
      290
1001
ACAD_EXEMPT_FROM_CAD_STANDARDS
1070
     1
  0
ENDTAB
  0
TABLE
  2
VIEW
  5
5
330
0
100
AcDbSymbolTable
 70
     2
  0
ENDTAB
  0
TABLE
  2
UCS
  5
6
330
0
100
AcDbSymbolTable
 70
     0
  0
ENDTAB
  0
TABLE
  2
APPID
  5
8
330
0
100
AcDbSymbolTable
 70
    11
  0
APPID
  5
16
330
8
100
AcDbSymbolTableRecord
100
AcDbRegAppTableRecord
  2
ACAD
 70
     0
  0
APPID
  5
66
330
8
100
AcDbSymbolTableRecord
100
AcDbRegAppTableRecord
  2
ACAD_PSEXT
 70
     0
  0
APPID
  5
119C
330
8
100
AcDbSymbolTableRecord
100
AcDbRegAppTableRecord
  2
DCO15
 70
     0
  0
APPID
  5
34BE
330
8
100
AcDbSymbolTableRecord
100
AcDbRegAppTableRecord
  2
ACAD_EXEMPT_FROM_CAD_STANDARDS
 70
     0
  0
APPID
  5
5FEE
330
8
100
AcDbSymbolTableRecord
100
AcDbRegAppTableRecord
  2
ACAD_MLEADERVER
 70
     0
  0
APPID
  5
606A
330
8
100
AcDbSymbolTableRecord
100
AcDbRegAppTableRecord
  2
AcadAnnotative
 70
     0
  0
APPID
  5
65BA
330
8
100
AcDbSymbolTableRecord
100
AcDbRegAppTableRecord
  2
AcDbDynamicBlockGUID
 70
     0
  0
APPID
  5
65BB
330
8
100
AcDbSymbolTableRecord
100
AcDbRegAppTableRecord
  2
AcDbBlockRepETag
 70
     0
  0
APPID
  5
6671
330
8
100
AcDbSymbolTableRecord
100
AcDbRegAppTableRecord
  2
ACAD_NAV_VCDISPLAY
 70
     0
  0
APPID
  5
7269
330
8
100
AcDbSymbolTableRecord
100
AcDbRegAppTableRecord
  2
ACAUTHENVIRON
 70
     0
  0
APPID
  5
FA30
330
8
100
AcDbSymbolTableRecord
100
AcDbRegAppTableRecord
  2
AcDbDynamicBlockTrueName
 70
     0
  0
ENDTAB
  0
TABLE
  2
DIMSTYLE
  5
9
330
0
100
AcDbSymbolTable
 70
     1
100
AcDbDimStyleTable
 71
     1
340
18
  0
DIMSTYLE
105
18
330
9
100
AcDbSymbolTableRecord
100
AcDbDimStyleTableRecord
  2
Standard
 70
     0
289
     0
340
17
  0
ENDTAB
  0
TABLE
  2
BLOCK_RECORD
  5
1
330
0
100
AcDbSymbolTable
 70
     3
  0
BLOCK_RECORD
  5
A
102
{ACAD_XDICTIONARY
360
34BB
102
}
330
1
100
AcDbSymbolTableRecord
100
AcDbBlockTableRecord
  2
*MODEL_SPACE
340
20
 70
     0
280
     1
281
     0
  0
BLOCK_RECORD
  5
B
330
1
100
AcDbSymbolTableRecord
100
AcDbBlockTableRecord
  2
*PAPER_SPACE
340
21
 70
     0
280
     1
281
     0
  0
BLOCK_RECORD
  5
E757
102
{ACAD_XDICTIONARY
360
10C4D
102
}
330
1
100
AcDbSymbolTableRecord
100
AcDbBlockTableRecord
  2
Kuiken Brothers Moulding Contemporary Shaker Style Cornice
340
0
310
2800000020000000200000000100200000000000001000000100000001000000000000000000000001000000302821FF302821FF302821FF302821FF302821FF302821FF302821FF302821FF302821FF302821FF302821FF302821FF302821FF302821FF302821FF302821FF302821FF302821FF302821FF302821FF302821
310
FF302821FF302821FF302821FF302821FF302821FF302821FF302821FF302821FF302821FF302821FF302821FF302821FF302821FF302821FF302821FF302821FF302821FF302821FF302821FF302821FF302821FF302821FF302821FF302821FF302821FF302821FF302821FF302821FF302821FFFFFFFFFFFFFFFFFF3028
310
21FF302821FF302821FF302821FF302821FF302821FF302821FF302821FF302821FF302821FF302821FF302821FF302821FF302821FF302821FF302821FF302821FF302821FF302821FF302821FF302821FF302821FF302821FF302821FF302821FF302821FF302821FF302821FF302821FF302821FFFFFFFFFFFFFFFFFFFF
310
FFFFFF302821FF302821FF302821FF302821FF302821FF302821FF302821FF302821FF302821FF302821FF302821FF302821FF302821FF302821FF302821FF302821FF302821FF302821FF302821FF302821FF302821FF302821FF302821FF302821FF302821FF302821FF302821FF302821FF302821FFFFFFFFFFFFFFFFFF
310
FFFFFFFF302821FF302821FF302821FF302821FF302821FFFFFFFFFF302821FF302821FF302821FF302821FF302821FF302821FF302821FF302821FF302821FF302821FF302821FF302821FF302821FF302821FF302821FF302821FF302821FF302821FF302821FF302821FF302821FF302821FF302821FFFFFFFFFF302821
310
FFFFFFFFFFFFFFFFFF302821FF302821FF302821FF302821FFFFFFFFFF302821FF302821FF302821FF302821FF302821FF302821FF302821FF302821FF302821FF302821FF302821FF302821FF302821FF302821FF302821FF302821FF302821FF302821FF302821FF302821FF302821FF302821FF302821FF302821FFFFFF
310
FFFFFFFFFFFFFFFFFFFF302821FF302821FF302821FF302821FFFFFFFFFF302821FF302821FF302821FF302821FF302821FF302821FF302821FF302821FF302821FF302821FF302821FF302821FF302821FF302821FF302821FF302821FF302821FF302821FF302821FF302821FF302821FF302821FF302821FF302821FFFF
310
FFFFFF302821FFFFFFFFFFFFFFFFFF302821FF302821FF302821FFFFFFFFFF302821FF302821FF302821FF302821FF302821FF302821FF302821FF302821FF302821FF302821FF302821FF302821FF302821FF302821FF302821FF302821FF302821FF302821FF302821FF302821FF302821FF302821FF302821FFFFFFFFFF
310
FFFFFFFFFFFFFFFF302821FFFFFFFFFFFFFFFFFF302821FF302821FFFFFFFFFF302821FF302821FF302821FF302821FF302821FF302821FF302821FF302821FF302821FF302821FF302821FF302821FF302821FF302821FF302821FF302821FF302821FF302821FF302821FF302821FF302821FF302821FF302821FFFFFFFF
310
FFFFFFFFFFFFFFFFFF302821FFFFFFFFFFFFFFFFFF302821FF302821FFFFFFFFFF302821FF302821FF302821FF302821FF302821FF302821FF302821FF302821FF302821FF302821FF302821FF302821FF302821FF302821FF302821FF302821FF302821FF302821FF302821FF302821FF302821FFFFFFFFFFFFFFFFFFFFFF
310
FFFFFFFFFFFFFFFFFFFFFFFFFFFF302821FFFFFFFFFFFFFFFFFF302821FFFFFFFFFF302821FF302821FF302821FF302821FF302821FF302821FF302821FF302821FF302821FF302821FF302821FF302821FF302821FF302821FF302821FF302821FF302821FF302821FF302821FF302821FF302821FFFFFFFFFFFFFFFFFF30
310
2821FFFFFFFFFFFFFFFFFFFFFFFFFFFFFFFFFFFFFFFFFFFFFFFFFF302821FFFFFFFFFF302821FF302821FF302821FF302821FF302821FF302821FF302821FF302821FF302821FF302821FF302821FF302821FF302821FF302821FF302821FF302821FF302821FF302821FF302821FF302821FF302821FFFFFFFFFFFFFFFFFF
310
302821FFFFFFFFFFFFFFFFFFFFFFFFFFFFFFFFFF302821FFFFFFFFFFFFFFFFFFFFFFFFFF302821FF302821FF302821FF302821FF302821FF302821FF302821FF302821FF302821FF302821FF302821FF302821FF302821FF302821FF302821FF302821FF302821FF302821FF302821FF302821FFFFFFFFFF302821FFFFFFFF
310
FFFFFFFFFF302821FFFFFFFFFFFFFFFFFFFFFFFFFFFFFFFFFFFFFFFFFFFFFFFFFFFFFFFFFF302821FF302821FF302821FF302821FF302821FF302821FF302821FF302821FF302821FF302821FF302821FF302821FF302821FF302821FF302821FF302821FF302821FF302821FF302821FFFFFFFFFF302821FF302821FFFFFF
310
FFFFFFFFFFFF302821FFFFFFFFFF302821FFFFFFFFFFFFFFFFFFFFFFFFFFFFFFFFFFFFFFFFFFFFFFFFFF302821FF302821FF302821FF302821FF302821FF302821FF302821FF302821FF302821FFFFFFFFFFFFFFFFFFFFFFFFFF302821FF302821FF302821FFFFFFFFFFFFFFFFFFFFFFFFFF302821FF302821FF302821FF30
310
2821FFFFFFFFFFFFFFFFFF302821FFFFFFFFFFFFFFFFFFFFFFFFFFFFFFFFFFFFFFFFFFFFFFFFFFFFFFFFFF302821FF302821FF302821FF302821FF302821FF302821FF302821FF302821FF302821FFFFFFFFFFFFFFFFFF302821FFFFFFFFFF302821FF302821FFFFFFFFFFFFFFFFFF302821FFFFFFFFFF302821FF302821FF
310
302821FFFFFFFFFF302821FFFFFFFFFF302821FFFFFFFFFFFFFFFFFFFFFFFFFFFFFFFFFFFFFFFFFFFFFFFFFF302821FF302821FF302821FF302821FF302821FF302821FF302821FF302821FF302821FFFFFFFFFFFFFFFFFF302821FFFFFFFFFFFFFFFFFFFFFFFFFFFFFFFFFFFFFFFFFF302821FFFFFFFFFF302821FF302821
310
FF302821FF302821FFFFFFFFFFFFFFFFFF302821FFFFFFFFFFFFFFFFFFFFFFFFFF302821FFFFFFFFFFFFFFFFFF302821FF302821FF302821FF302821FF302821FF302821FF302821FF302821FF302821FF302821FFFFFFFFFFFFFFFFFF302821FFFFFFFFFF302821FF302821FFFFFFFFFFFFFFFFFF302821FFFFFFFFFF3028
310
21FF302821FF302821FF302821FFFFFFFFFFFFFFFFFF302821FFFFFFFFFFFFFFFFFFFFFFFFFFFFFFFFFFFFFFFFFF302821FF302821FF302821FF302821FF302821FF302821FF302821FF302821FF302821FF302821FFFFFFFFFFFFFFFFFF302821FFFFFFFFFF302821FF302821FFFFFFFFFFFFFFFFFF302821FFFFFFFFFF30
310
2821FF302821FF302821FF302821FFFFFFFFFFFFFFFFFF302821FFFFFFFFFFFFFFFFFFFFFFFFFFFFFFFFFFFFFFFFFF302821FF302821FF302821FF302821FF302821FF302821FF302821FF302821FF302821FF302821FF302821FFFFFFFFFFFFFFFFFF302821FFFFFFFFFF302821FF302821FFFFFFFFFFFFFFFFFF302821FF
310
FFFFFFFF302821FF302821FF302821FF302821FFFFFFFFFFFFFFFFFF302821FFFFFFFFFFFFFFFFFFFFFFFFFFFFFFFFFF302821FF302821FF302821FF302821FF302821FF302821FF302821FF302821FF302821FF302821FF302821FFFFFFFFFF302821FFFFFFFFFFFFFFFFFF302821FF302821FFFFFFFFFF302821FFFFFFFF
310
FF302821FFFFFFFFFF302821FF302821FF302821FFFFFFFFFFFFFFFFFF302821FFFFFFFFFFFFFFFFFFFFFFFFFFFFFFFFFFFFFFFFFF302821FF302821FF302821FF302821FF302821FF302821FF302821FF302821FF302821FF302821FF302821FFFFFFFFFFFFFFFFFF302821FFFFFFFFFF302821FF302821FFFFFFFFFFFFFF
310
FFFF302821FFFFFFFFFF302821FF302821FF302821FF302821FFFFFFFFFFFFFFFFFFFFFFFFFFFFFFFFFFFFFFFFFFFFFFFFFFFFFFFFFF302821FF302821FF302821FF302821FF302821FF302821FF302821FF302821FF302821FF302821FF302821FF302821FFFFFFFFFFFFFFFFFF302821FFFFFFFFFF302821FF302821FFFF
310
FFFFFFFFFFFFFF302821FFFFFFFFFF302821FF302821FF302821FFFFFFFFFFFFFFFFFFFFFFFFFFFFFFFFFFFFFFFFFFFFFFFFFF302821FF302821FF302821FF302821FF302821FF302821FF302821FF302821FF302821FF302821FF302821FF302821FF302821FFFFFFFFFFFFFFFFFF302821FFFFFFFFFF302821FF302821FF
310
FFFFFFFFFFFFFFFF302821FFFFFFFFFF302821FF302821FF302821FFFFFFFFFFFFFFFFFFFFFFFFFFFFFFFFFFFFFFFFFFFFFFFFFF302821FF302821FF302821FF302821FF302821FF302821FF302821FF302821FF302821FF302821FF302821FF302821FF302821FF302821FFFFFFFFFFFFFFFFFF302821FFFFFFFFFF302821
310
FF302821FFFFFFFFFFFFFFFFFF302821FFFFFFFFFF302821FFFFFFFFFFFFFFFFFFFFFFFFFFFFFFFFFF302821FFFFFFFFFFFFFFFFFF302821FF302821FF302821FF302821FF302821FF302821FF302821FF302821FF302821FF302821FF302821FF302821FF302821FF302821FFFFFFFFFFFFFFFFFF302821FFFFFFFFFF3028
310
21FF302821FFFFFFFFFFFFFFFFFF302821FFFFFFFFFFFFFFFFFFFFFFFFFFFFFFFFFFFFFFFFFF302821FF302821FFFFFFFFFFFFFFFFFF302821FF302821FF302821FF302821FF302821FF302821FF302821FF302821FF302821FF302821FF302821FF302821FF302821FF302821FF302821FFFFFFFFFFFFFFFFFFFFFFFFFFFF
310
FFFFFF302821FF302821FFFFFFFFFFFFFFFFFFFFFFFFFFFFFFFFFFFFFFFFFFFFFFFFFF302821FF302821FF302821FFFFFFFFFFFFFFFFFF302821FF302821FF302821FF302821FF302821FF302821FF302821FF302821FF302821FF302821FF302821FF302821FF302821FF302821FF302821FFFFFFFFFFFFFFFFFFFFFFFFFF
310
FFFFFFFF302821FF302821FFFFFFFFFFFFFFFFFFFFFFFFFFFFFFFFFFFFFFFFFF302821FF302821FF302821FF302821FFFFFFFFFFFFFFFFFF302821FF302821FF302821FF302821FF302821FF302821FF302821FFFFFFFFFFFFFFFFFFFFFFFFFFFFFFFFFFFFFFFFFFFFFFFFFFFFFFFFFFFFFFFFFFFFFFFFFFFFFFFFFFFFFFFF
310
FFFFFFFFFFFFFFFFFFFFFFFFFFFFFFFFFFFFFFFFFFFFFFFFFFFFFFFFFFFFFFFFFFFFFFFFFFFFFFFFFFFFFFFFFFFFFFFFFFFFFFFFFFFFFFFFFF302821FF302821FF302821FF302821FF302821FF302821FF302821FF302821FF302821FF302821FF302821FF302821FF302821FF302821FF302821FF302821FFFFFFFFFFFFFF
310
FFFFFFFFFFFFFFFFFFFFFFFFFFFFFFFFFFFFFFFFFFFFFFFFFFFFFFFFFFFFFFFFFFFFFFFFFFFFFFFFFFFFFFFFFFFFFFFFFFFFFFFFFFFF302821FF302821FF302821FF302821FF302821FF302821FF302821FF302821FF302821FF302821FF302821FF302821FF302821FF302821FF302821FF302821FF302821FF302821FF30
310
2821FF302821FF302821FF302821FF302821FF302821FFFFFFFFFF302821FF302821FF302821FF302821FF302821FF302821FF302821FF302821FF302821FF302821FF302821FF302821FF302821FF302821FF302821FF302821FF302821FF302821FF302821FF302821FF302821FF302821FF302821FF302821FF302821FF
310
302821FF302821FF302821FF302821FF302821FF302821FF302821FF302821FF302821FF302821FF302821FF302821FF302821FF302821FF302821FF302821FF302821FF302821FF
102
{BLKREFS
331
F535
102
}
 70
     1
280
     1
281
     0
1001
AcDbDynamicBlockGUID
1000
{B9889D40-B5CC-8740-BDC4-940430A9460F}
  0
ENDTAB
  0
ENDSEC
  0
SECTION
  2
BLOCKS
  0
BLOCK
  5
D
330
A
100
AcDbEntity
  8
0
100
AcDbBlockBegin
  2
*MODEL_SPACE
 70
     0
 10
0.0
 20
0.0
 30
0.0
  3
*MODEL_SPACE
  1

  0
ENDBLK
  5
E
330
A
100
AcDbEntity
  8
0
100
AcDbBlockEnd
  0
BLOCK
  5
F
330
B
100
AcDbEntity
 67
     1
  8
0
100
AcDbBlockBegin
  2
*PAPER_SPACE
 70
     0
 10
0.0
 20
0.0
 30
0.0
  3
*PAPER_SPACE
  1

  0
ENDBLK
  5
10
330
B
100
AcDbEntity
 67
     1
  8
0
100
AcDbBlockEnd
  0
BLOCK
  5
EBF6
330
E757
100
AcDbEntity
  8
0
370
     0
100
AcDbBlockBegin
  2
Kuiken Brothers Moulding Contemporary Shaker Style Cornice
 70
     0
 10
0.0
 20
0.0
 30
0.0
  3
Kuiken Brothers Moulding Contemporary Shaker Style Cornice
  1

  0
POLYLINE
  5
10A66
330
E757
100
AcDbEntity
  8
Layer 1
 62
     7
370
    18
100
AcDb2dPolyline
 66
     1
 10
0.0
 20
0.0
 30
0.0
  0
VERTEX
  5
10A67
330
10A66
100
AcDbEntity
  8
Layer 1
 62
     7
370
    18
100
AcDbVertex
100
AcDb2dVertex
 10
-7.864516512849846
 20
-2.815352409251283
 30
0.0
  0
VERTEX
  5
10A68
330
10A66
100
AcDbEntity
  8
Layer 1
 62
     7
370
    18
100
AcDbVertex
100
AcDb2dVertex
 10
-7.854520304000958
 20
-2.825362181477172
 30
0.0
  0
SEQEND
  5
10A69
330
10A66
100
AcDbEntity
  8
Layer 1
370
    18
  0
POLYLINE
  5
10A6A
330
E757
100
AcDbEntity
  8
Layer 1
 62
     7
370
    18
100
AcDb2dPolyline
 66
     1
 10
0.0
 20
0.0
 30
0.0
  0
VERTEX
  5
10A6B
330
10A6A
100
AcDbEntity
  8
Layer 1
 62
     7
370
    18
100
AcDbVertex
100
AcDb2dVertex
 10
-7.864516512849846
 20
-2.548696417434248
 30
0.0
  0
VERTEX
  5
10A6C
330
10A6A
100
AcDbEntity
  8
Layer 1
 62
     7
370
    18
100
AcDbVertex
100
AcDb2dVertex
 10
-7.587850748806923
 20
-2.825362181477172
 30
0.0
  0
SEQEND
  5
10A6D
330
10A6A
100
AcDbEntity
  8
Layer 1
370
    18
  0
POLYLINE
  5
10A6E
330
E757
100
AcDbEntity
  8
Layer 1
 62
     7
370
    18
100
AcDb2dPolyline
 66
     1
 10
0.0
 20
0.0
 30
0.0
  0
VERTEX
  5
10A6F
330
10A6E
100
AcDbEntity
  8
Layer 1
 62
     7
370
    18
100
AcDbVertex
100
AcDb2dVertex
 10
-7.864516512849846
 20
-2.282026862240214
 30
0.0
  0
VERTEX
  5
10A70
330
10A6E
100
AcDbEntity
  8
Layer 1
 62
     7
370
    18
100
AcDbVertex
100
AcDb2dVertex
 10
-7.324517784354851
 20
-2.825362181477172
 30
0.0
  0
SEQEND
  5
10A71
330
10A6E
100
AcDbEntity
  8
Layer 1
370
    18
  0
POLYLINE
  5
10A72
330
E757
100
AcDbEntity
  8
Layer 1
 62
     7
370
    18
100
AcDb2dPolyline
 66
     1
 10
0.0
 20
0.0
 30
0.0
  0
VERTEX
  5
10A73
330
10A72
100
AcDbEntity
  8
Layer 1
 62
     7
370
    18
100
AcDbVertex
100
AcDb2dVertex
 10
-7.83452110461468
 20
-2.048696087711808
 30
0.0
  0
VERTEX
  5
10A74
330
10A72
100
AcDbEntity
  8
Layer 1
 62
     7
370
    18
100
AcDbVertex
100
AcDb2dVertex
 10
-7.264520186196019
 20
-2.61868344275347
 30
0.0
  0
SEQEND
  5
10A75
330
10A72
100
AcDbEntity
  8
Layer 1
370
    18
  0
POLYLINE
  5
10A76
330
E757
100
AcDbEntity
  8
Layer 1
 62
     7
370
    18
100
AcDb2dPolyline
 66
     1
 10
0.0
 20
0.0
 30
0.0
  0
VERTEX
  5
10A77
330
10A76
100
AcDbEntity
  8
Layer 1
 62
     7
370
    18
100
AcDbVertex
100
AcDb2dVertex
 10
-7.701186327017662
 20
-1.918691119168254
 30
0.0
  0
VERTEX
  5
10A78
330
10A76
100
AcDbEntity
  8
Layer 1
 62
     7
370
    18
100
AcDbVertex
100
AcDb2dVertex
 10
-7.264520186196019
 20
-2.352027450936435
 30
0.0
  0
SEQEND
  5
10A79
330
10A76
100
AcDbEntity
  8
Layer 1
370
    18
  0
POLYLINE
  5
10A7A
330
E757
100
AcDbEntity
  8
Layer 1
 62
     7
370
    18
100
AcDb2dPolyline
 66
     1
 10
0.0
 20
0.0
 30
0.0
  0
VERTEX
  5
10A7B
330
10A7A
100
AcDbEntity
  8
Layer 1
 62
     7
370
    18
100
AcDbVertex
100
AcDb2dVertex
 10
-7.567851549420646
 20
-1.785349559882737
 30
0.0
  0
VERTEX
  5
10A7C
330
10A7A
100
AcDbEntity
  8
Layer 1
 62
     7
370
    18
100
AcDbVertex
100
AcDb2dVertex
 10
-7.191183006757833
 20
-2.162018102545548
 30
0.0
  0
SEQEND
  5
10A7D
330
10A7A
100
AcDbEntity
  8
Layer 1
370
    18
  0
POLYLINE
  5
10A7E
330
E757
100
AcDbEntity
  8
Layer 1
 62
     7
370
    18
100
AcDb2dPolyline
 66
     1
 10
0.0
 20
0.0
 30
0.0
  0
VERTEX
  5
10A7F
330
10A7E
100
AcDbEntity
  8
Layer 1
 62
     7
370
    18
100
AcDbVertex
100
AcDb2dVertex
 10
-7.434516771823629
 20
-1.65202156397422
 30
0.0
  0
VERTEX
  5
10A80
330
10A7E
100
AcDbEntity
  8
Layer 1
 62
     7
370
    18
100
AcDbVertex
100
AcDb2dVertex
 10
-7.057848229160818
 20
-2.028690106637031
 30
0.0
  0
SEQEND
  5
10A81
330
10A7E
100
AcDbEntity
  8
Layer 1
370
    18
  0
POLYLINE
  5
10A82
330
E757
100
AcDbEntity
  8
Layer 1
 62
     7
370
    18
100
AcDb2dPolyline
 66
     1
 10
0.0
 20
0.0
 30
0.0
  0
VERTEX
  5
10A83
330
10A82
100
AcDbEntity
  8
Layer 1
 62
     7
370
    18
100
AcDbVertex
100
AcDb2dVertex
 10
-7.301181994226611
 20
-1.518693568065702
 30
0.0
  0
VERTEX
  5
10A84
330
10A82
100
AcDbEntity
  8
Layer 1
 62
     7
370
    18
100
AcDbVertex
100
AcDb2dVertex
 10
-6.9245202332523
 20
-1.895362110728513
 30
0.0
  0
SEQEND
  5
10A85
330
10A82
100
AcDbEntity
  8
Layer 1
370
    18
  0
POLYLINE
  5
10A86
330
E757
100
AcDbEntity
  8
Layer 1
 62
     7
370
    18
100
AcDb2dPolyline
 66
     1
 10
0.0
 20
0.0
 30
0.0
  0
VERTEX
  5
10A87
330
10A86
100
AcDbEntity
  8
Layer 1
 62
     7
370
    18
100
AcDbVertex
100
AcDb2dVertex
 10
-7.171183807371557
 20
-1.388688599522148
 30
0.0
  0
VERTEX
  5
10A88
330
10A86
100
AcDbEntity
  8
Layer 1
 62
     7
370
    18
100
AcDbVertex
100
AcDb2dVertex
 10
-6.791185455655282
 20
-1.765357142184959
 30
0.0
  0
SEQEND
  5
10A89
330
10A86
100
AcDbEntity
  8
Layer 1
370
    18
  0
POLYLINE
  5
10A8A
330
E757
100
AcDbEntity
  8
Layer 1
 62
     7
370
    18
100
AcDb2dPolyline
 66
     1
 10
0.0
 20
0.0
 30
0.0
  0
VERTEX
  5
10A8B
330
10A8A
100
AcDbEntity
  8
Layer 1
 62
     7
370
    18
100
AcDbVertex
100
AcDb2dVertex
 10
-7.037849029774539
 20
-1.255360603613631
 30
0.0
  0
VERTEX
  5
10A8C
330
10A8A
100
AcDbEntity
  8
Layer 1
 62
     7
370
    18
100
AcDbVertex
100
AcDb2dVertex
 10
-6.661187268800228
 20
-1.632029146276442
 30
0.0
  0
SEQEND
  5
10A8D
330
10A8A
100
AcDbEntity
  8
Layer 1
370
    18
  0
POLYLINE
  5
10A8E
330
E757
100
AcDbEntity
  8
Layer 1
 62
     7
370
    18
100
AcDb2dPolyline
 66
     1
 10
0.0
 20
0.0
 30
0.0
  0
VERTEX
  5
10A8F
330
10A8E
100
AcDbEntity
  8
Layer 1
 62
     7
370
    18
100
AcDbVertex
100
AcDb2dVertex
 10
-6.904514252177522
 20
-1.122019044328114
 30
0.0
  0
VERTEX
  5
10A90
330
10A8E
100
AcDbEntity
  8
Layer 1
 62
     7
370
    18
100
AcDbVertex
100
AcDb2dVertex
 10
-6.52785249120321
 20
-1.498687586990925
 30
0.0
  0
SEQEND
  5
10A91
330
10A8E
100
AcDbEntity
  8
Layer 1
370
    18
  0
POLYLINE
  5
10A92
330
E757
100
AcDbEntity
  8
Layer 1
 62
     7
370
    18
100
AcDb2dPolyline
 66
     1
 10
0.0
 20
0.0
 30
0.0
  0
VERTEX
  5
10A93
330
10A92
100
AcDbEntity
  8
Layer 1
 62
     7
370
    18
100
AcDbVertex
100
AcDb2dVertex
 10
-6.771186256269006
 20
-0.9886910484195965
 30
0.0
  0
VERTEX
  5
10A94
330
10A92
100
AcDbEntity
  8
Layer 1
 62
     7
370
    18
100
AcDbVertex
100
AcDb2dVertex
 10
-6.394517713606195
 20
-1.365359591082408
 30
0.0
  0
SEQEND
  5
10A95
330
10A92
100
AcDbEntity
  8
Layer 1
370
    18
  0
POLYLINE
  5
10A96
330
E757
100
AcDbEntity
  8
Layer 1
 62
     7
370
    18
100
AcDb2dPolyline
 66
     1
 10
0.0
 20
0.0
 30
0.0
  0
VERTEX
  5
10A97
330
10A96
100
AcDbEntity
  8
Layer 1
 62
     7
370
    18
100
AcDbVertex
100
AcDb2dVertex
 10
-6.637851478671988
 20
-0.8553630525110804
 30
0.0
  0
VERTEX
  5
10A98
330
10A96
100
AcDbEntity
  8
Layer 1
 62
     7
370
    18
100
AcDbVertex
100
AcDb2dVertex
 10
-6.261182936009177
 20
-1.235354622538853
 30
0.0
  0
SEQEND
  5
10A99
330
10A96
100
AcDbEntity
  8
Layer 1
370
    18
  0
POLYLINE
  5
10A9A
330
E757
100
AcDbEntity
  8
Layer 1
 62
     7
370
    18
100
AcDb2dPolyline
 66
     1
 10
0.0
 20
0.0
 30
0.0
  0
VERTEX
  5
10A9B
330
10A9A
100
AcDbEntity
  8
Layer 1
 62
     7
370
    18
100
AcDbVertex
100
AcDb2dVertex
 10
-6.507853291816934
 20
-0.7253580839675263
 30
0.0
  0
VERTEX
  5
10A9C
330
10A9A
100
AcDbEntity
  8
Layer 1
 62
     7
370
    18
100
AcDbVertex
100
AcDb2dVertex
 10
-6.131184749154122
 20
-1.102026626630336
 30
0.0
  0
SEQEND
  5
10A9D
330
10A9A
100
AcDbEntity
  8
Layer 1
370
    18
  0
POLYLINE
  5
10A9E
330
E757
100
AcDbEntity
  8
Layer 1
 62
     7
370
    18
100
AcDb2dPolyline
 66
     1
 10
0.0
 20
0.0
 30
0.0
  0
VERTEX
  5
10A9F
330
10A9E
100
AcDbEntity
  8
Layer 1
 62
     7
370
    18
100
AcDbVertex
100
AcDb2dVertex
 10
-6.374518514219916
 20
-0.5920165246820092
 30
0.0
  0
VERTEX
  5
10AA0
330
10A9E
100
AcDbEntity
  8
Layer 1
 62
     7
370
    18
100
AcDbVertex
100
AcDb2dVertex
 10
-5.997849971557105
 20
-0.9686850673448194
 30
0.0
  0
SEQEND
  5
10AA1
330
10A9E
100
AcDbEntity
  8
Layer 1
370
    18
  0
POLYLINE
  5
10AA2
330
E757
100
AcDbEntity
  8
Layer 1
 62
     7
370
    18
100
AcDb2dPolyline
 66
     1
 10
0.0
 20
0.0
 30
0.0
  0
VERTEX
  5
10AA3
330
10AA2
100
AcDbEntity
  8
Layer 1
 62
     7
370
    18
100
AcDbVertex
100
AcDb2dVertex
 10
-6.241183736622899
 20
-0.4586885287734913
 30
0.0
  0
VERTEX
  5
10AA4
330
10AA2
100
AcDbEntity
  8
Layer 1
 62
     7
370
    18
100
AcDbVertex
100
AcDb2dVertex
 10
-5.73118719805157
 20
-0.9686850673448194
 30
0.0
  0
SEQEND
  5
10AA5
330
10AA2
100
AcDbEntity
  8
Layer 1
370
    18
  0
POLYLINE
  5
10AA6
330
E757
100
AcDbEntity
  8
Layer 1
 62
     7
370
    18
100
AcDb2dPolyline
 66
     1
 10
0.0
 20
0.0
 30
0.0
  0
VERTEX
  5
10AA7
330
10AA6
100
AcDbEntity
  8
Layer 1
 62
     7
370
    18
100
AcDbVertex
100
AcDb2dVertex
 10
-6.097852750176993
 20
-0.3386933324558258
 30
0.0
  0
VERTEX
  5
10AA8
330
10AA6
100
AcDbEntity
  8
Layer 1
 62
     7
370
    18
100
AcDbVertex
100
AcDb2dVertex
 10
-5.464517642857536
 20
-0.9686850673448194
 30
0.0
  0
SEQEND
  5
10AA9
330
10AA6
100
AcDbEntity
  8
Layer 1
370
    18
  0
POLYLINE
  5
10AAA
330
E757
100
AcDbEntity
  8
Layer 1
 62
     7
370
    18
100
AcDb2dPolyline
 66
     1
 10
0.0
 20
0.0
 30
0.0
  0
VERTEX
  5
10AAB
330
10AAA
100
AcDbEntity
  8
Layer 1
 62
     7
370
    18
100
AcDbVertex
100
AcDb2dVertex
 10
-5.831183194982958
 20
-0.3386933324558258
 30
0.0
  0
VERTEX
  5
10AAC
330
10AAA
100
AcDbEntity
  8
Layer 1
 62
     7
370
    18
100
AcDbVertex
100
AcDb2dVertex
 10
-5.40118345395674
 20
-0.7686930734820444
 30
0.0
  0
SEQEND
  5
10AAD
330
10AAA
100
AcDbEntity
  8
Layer 1
370
    18
  0
POLYLINE
  5
10AAE
330
E757
100
AcDbEntity
  8
Layer 1
 62
     7
370
    18
100
AcDb2dPolyline
 66
     1
 10
0.0
 20
0.0
 30
0.0
  0
VERTEX
  5
10AAF
330
10AAE
100
AcDbEntity
  8
Layer 1
 62
     7
370
    18
100
AcDbVertex
100
AcDb2dVertex
 10
-5.567850230530886
 20
-0.3386933324558258
 30
0.0
  0
VERTEX
  5
10AB0
330
10AAE
100
AcDbEntity
  8
Layer 1
 62
     7
370
    18
100
AcDbVertex
100
AcDb2dVertex
 10
-5.40118345395674
 20
-0.5053601090299723
 30
0.0
  0
SEQEND
  5
10AB1
330
10AAE
100
AcDbEntity
  8
Layer 1
370
    18
  0
POLYLINE
  5
10AB2
330
E757
100
AcDbEntity
  8
Layer 1
 62
     7
370
    35
100
AcDb2dPolyline
 66
     1
 10
0.0
 20
0.0
 30
0.0
  0
VERTEX
  5
10AB3
330
10AB2
100
AcDbEntity
  8
Layer 1
 62
     7
370
    35
100
AcDbVertex
100
AcDb2dVertex
 10
-5.40118345395674
 20
-0.3386933324558258
 30
0.0
  0
VERTEX
  5
10AB4
330
10AB2
100
AcDbEntity
  8
Layer 1
 62
     7
370
    35
100
AcDbVertex
100
AcDb2dVertex
 10
-5.40118345395674
 20
-0.9686850673448194
 30
0.0
  0
VERTEX
  5
10AB5
330
10AB2
100
AcDbEntity
  8
Layer 1
 62
     7
370
    35
100
AcDbVertex
100
AcDb2dVertex
 10
-5.997849971557105
 20
-0.9686850673448194
 30
0.0
  0
SEQEND
  5
10AB6
330
10AB2
100
AcDbEntity
  8
Layer 1
370
    35
  0
POLYLINE
  5
10AB7
330
E757
100
AcDbEntity
  8
Layer 1
 62
     7
370
    35
100
AcDb2dPolyline
 66
     1
 10
0.0
 20
0.0
 30
0.0
  0
VERTEX
  5
10AB8
330
10AB7
100
AcDbEntity
  8
Layer 1
 62
     7
370
    35
100
AcDbVertex
100
AcDb2dVertex
 10
-7.264520186196019
 20
-2.235355281983733
 30
0.0
  0
VERTEX
  5
10AB9
330
10AB7
100
AcDbEntity
  8
Layer 1
 62
     7
370
    35
100
AcDbVertex
100
AcDb2dVertex
 10
-7.264520186196019
 20
-2.825362181477172
 30
0.0
  0
SEQEND
  5
10ABA
330
10AB7
100
AcDbEntity
  8
Layer 1
370
    35
  0
POLYLINE
  5
10ABB
330
E757
100
AcDbEntity
  8
Layer 1
 62
     7
370
    25
100
AcDb2dPolyline
 66
     1
 10
0.0
 20
0.0
 30
0.0
  0
VERTEX
  5
10ABC
330
10ABB
100
AcDbEntity
  8
Layer 1
 62
     7
370
    25
100
AcDbVertex
100
AcDb2dVertex
 10
-6.121181758616733
 20
-0.3386933324558258
 30
0.0
  0
VERTEX
  5
10ABD
330
10ABB
100
AcDbEntity
  8
Layer 1
 62
     7
370
    25
100
AcDbVertex
100
AcDb2dVertex
 10
-7.864516512849846
 20
-2.082021305000438
 30
0.0
  0
SEQEND
  5
10ABE
330
10ABB
100
AcDbEntity
  8
Layer 1
370
    25
  0
POLYLINE
  5
10ABF
330
E757
100
AcDbEntity
  8
Layer 1
 62
     7
370
    35
100
AcDb2dPolyline
 66
     1
 10
0.0
 20
0.0
 30
0.0
  0
VERTEX
  5
10AC0
330
10ABF
100
AcDbEntity
  8
Layer 1
 62
     7
370
    35
100
AcDbVertex
100
AcDb2dVertex
 10
-7.864516512849846
 20
-2.825362181477172
 30
0.0
  0
VERTEX
  5
10AC1
330
10ABF
100
AcDbEntity
  8
Layer 1
 62
     7
370
    35
100
AcDbVertex
100
AcDb2dVertex
 10
-7.264520186196019
 20
-2.825362181477172
 30
0.0
  0
SEQEND
  5
10AC2
330
10ABF
100
AcDbEntity
  8
Layer 1
370
    35
  0
POLYLINE
  5
10AC3
330
E757
100
AcDbEntity
  8
Layer 1
 62
     7
370
    35
100
AcDb2dPolyline
 66
     1
 10
0.0
 20
0.0
 30
0.0
  0
VERTEX
  5
10AC4
330
10AC3
100
AcDbEntity
  8
Layer 1
 62
     7
370
    35
100
AcDbVertex
100
AcDb2dVertex
 10
-5.997849971557105
 20
-0.9686850673448194
 30
0.0
  0
VERTEX
  5
10AC5
330
10AC3
100
AcDbEntity
  8
Layer 1
 62
     7
370
    35
100
AcDbVertex
100
AcDb2dVertex
 10
-7.264520186196019
 20
-2.235355281983733
 30
0.0
  0
SEQEND
  5
10AC6
330
10AC3
100
AcDbEntity
  8
Layer 1
370
    35
  0
POLYLINE
  5
10AC7
330
E757
100
AcDbEntity
  8
Layer 1
 62
     7
370
    18
100
AcDb2dPolyline
 66
     1
 10
0.0
 20
0.0
 30
0.0
  0
VERTEX
  5
10AC8
330
10AC7
100
AcDbEntity
  8
Layer 1
 62
     7
370
    18
100
AcDbVertex
100
AcDb2dVertex
 10
-4.674518749501322
 20
-0.3386933324558259
 30
0.0
  0
VERTEX
  5
10AC9
330
10AC7
100
AcDbEntity
  8
Layer 1
 62
     7
370
    18
100
AcDbVertex
100
AcDb2dVertex
 10
-4.621180769449415
 20
-0.2820255433504555
 30
0.0
  0
SEQEND
  5
10ACA
330
10AC7
100
AcDbEntity
  8
Layer 1
370
    18
  0
POLYLINE
  5
10ACB
330
E757
100
AcDbEntity
  8
Layer 1
 62
     7
370
    18
100
AcDb2dPolyline
 66
     1
 10
0.0
 20
0.0
 30
0.0
  0
VERTEX
  5
10ACC
330
10ACB
100
AcDbEntity
  8
Layer 1
 62
     7
370
    18
100
AcDbVertex
100
AcDb2dVertex
 10
-4.941181523006855
 20
-0.3386933324558259
 30
0.0
  0
VERTEX
  5
10ACD
330
10ACB
100
AcDbEntity
  8
Layer 1
 62
     7
370
    18
100
AcDbVertex
100
AcDb2dVertex
 10
-4.621180769449415
 20
-0.0186925788983834
 30
0.0
  0
SEQEND
  5
10ACE
330
10ACB
100
AcDbEntity
  8
Layer 1
370
    18
  0
POLYLINE
  5
10ACF
330
E757
100
AcDbEntity
  8
Layer 1
 62
     7
370
    18
100
AcDb2dPolyline
 66
     1
 10
0.0
 20
0.0
 30
0.0
  0
VERTEX
  5
10AD0
330
10ACF
100
AcDbEntity
  8
Layer 1
 62
     7
370
    18
100
AcDbVertex
100
AcDb2dVertex
 10
-5.204514487458927
 20
-0.3386933324558258
 30
0.0
  0
VERTEX
  5
10AD1
330
10ACF
100
AcDbEntity
  8
Layer 1
 62
     7
370
    18
100
AcDbVertex
100
AcDb2dVertex
 10
-4.704514157736488
 20
0.1613069972666137
 30
0.0
  0
SEQEND
  5
10AD2
330
10ACF
100
AcDbEntity
  8
Layer 1
370
    18
  0
POLYLINE
  5
10AD3
330
E757
100
AcDbEntity
  8
Layer 1
 62
     7
370
    18
100
AcDb2dPolyline
 66
     1
 10
0.0
 20
0.0
 30
0.0
  0
VERTEX
  5
10AD4
330
10AD3
100
AcDbEntity
  8
Layer 1
 62
     7
370
    18
100
AcDbVertex
100
AcDb2dVertex
 10
-5.471184042652962
 20
-0.3386933324558258
 30
0.0
  0
VERTEX
  5
10AD5
330
10AD3
100
AcDbEntity
  8
Layer 1
 62
     7
370
    18
100
AcDbVertex
100
AcDb2dVertex
 10
-4.971183712930523
 20
0.1613069972666137
 30
0.0
  0
SEQEND
  5
10AD6
330
10AD3
100
AcDbEntity
  8
Layer 1
370
    18
  0
POLYLINE
  5
10AD7
330
E757
100
AcDbEntity
  8
Layer 1
 62
     7
370
    18
100
AcDb2dPolyline
 66
     1
 10
0.0
 20
0.0
 30
0.0
  0
VERTEX
  5
10AD8
330
10AD7
100
AcDbEntity
  8
Layer 1
 62
     7
370
    18
100
AcDbVertex
100
AcDb2dVertex
 10
-5.734517007105033
 20
-0.3386933324558258
 30
0.0
  0
VERTEX
  5
10AD9
330
10AD7
100
AcDbEntity
  8
Layer 1
 62
     7
370
    18
100
AcDbVertex
100
AcDb2dVertex
 10
-5.234516677382593
 20
0.1613069972666137
 30
0.0
  0
SEQEND
  5
10ADA
330
10AD7
100
AcDbEntity
  8
Layer 1
370
    18
  0
POLYLINE
  5
10ADB
330
E757
100
AcDbEntity
  8
Layer 1
 62
     7
370
    18
100
AcDb2dPolyline
 66
     1
 10
0.0
 20
0.0
 30
0.0
  0
VERTEX
  5
10ADC
330
10ADB
100
AcDbEntity
  8
Layer 1
 62
     7
370
    18
100
AcDbVertex
100
AcDb2dVertex
 10
-6.001186562299068
 20
-0.3386933324558258
 30
0.0
  0
VERTEX
  5
10ADD
330
10ADB
100
AcDbEntity
  8
Layer 1
 62
     7
370
    18
100
AcDbVertex
100
AcDb2dVertex
 10
-5.501186232576628
 20
0.1613069972666137
 30
0.0
  0
SEQEND
  5
10ADE
330
10ADB
100
AcDbEntity
  8
Layer 1
370
    18
  0
POLYLINE
  5
10ADF
330
E757
100
AcDbEntity
  8
Layer 1
 62
     7
370
    18
100
AcDb2dPolyline
 66
     1
 10
0.0
 20
0.0
 30
0.0
  0
VERTEX
  5
10AE0
330
10ADF
100
AcDbEntity
  8
Layer 1
 62
     7
370
    18
100
AcDbVertex
100
AcDb2dVertex
 10
-6.121181758616733
 20
-0.1920189735794563
 30
0.0
  0
VERTEX
  5
10AE1
330
10ADF
100
AcDbEntity
  8
Layer 1
 62
     7
370
    18
100
AcDbVertex
100
AcDb2dVertex
 10
-5.767849006082162
 20
0.1613069972666138
 30
0.0
  0
SEQEND
  5
10AE2
330
10ADF
100
AcDbEntity
  8
Layer 1
370
    18
  0
POLYLINE
  5
10AE3
330
E757
100
AcDbEntity
  8
Layer 1
 62
     7
370
    18
100
AcDb2dPolyline
 66
     1
 10
0.0
 20
0.0
 30
0.0
  0
VERTEX
  5
10AE4
330
10AE3
100
AcDbEntity
  8
Layer 1
 62
     7
370
    18
100
AcDbVertex
100
AcDb2dVertex
 10
-6.121181758616733
 20
0.0746505816145787
 30
0.0
  0
VERTEX
  5
10AE5
330
10AE3
100
AcDbEntity
  8
Layer 1
 62
     7
370
    18
100
AcDbVertex
100
AcDb2dVertex
 10
-6.031181970534234
 20
0.1613069972666138
 30
0.0
  0
SEQEND
  5
10AE6
330
10AE3
100
AcDbEntity
  8
Layer 1
370
    18
  0
POLYLINE
  5
10AE7
330
E757
100
AcDbEntity
  8
Layer 1
 62
     7
370
    25
100
AcDb2dPolyline
 66
     1
 10
0.0
 20
0.0
 30
0.0
  0
VERTEX
  5
10AE8
330
10AE7
100
AcDbEntity
  8
Layer 1
 62
     7
370
    25
100
AcDbVertex
100
AcDb2dVertex
 10
-6.121181758616733
 20
0.1613069972666138
 30
0.0
  0
VERTEX
  5
10AE9
330
10AE7
100
AcDbEntity
  8
Layer 1
 62
     7
370
    25
100
AcDbVertex
100
AcDb2dVertex
 10
-6.121181758616733
 20
-0.3386933324558258
 30
0.0
  0
SEQEND
  5
10AEA
330
10AE7
100
AcDbEntity
  8
Layer 1
370
    25
  0
POLYLINE
  5
10AEB
330
E757
100
AcDbEntity
  8
Layer 1
 62
     7
370
    35
100
AcDb2dPolyline
 66
     1
 10
0.0
 20
0.0
 30
0.0
  0
VERTEX
  5
10AEC
330
10AEB
100
AcDbEntity
  8
Layer 1
 62
     7
370
    35
100
AcDbVertex
100
AcDb2dVertex
 10
-5.40118345395674
 20
-0.3386933324558258
 30
0.0
  0
VERTEX
  5
10AED
330
10AEB
100
AcDbEntity
  8
Layer 1
 62
     7
370
    35
100
AcDbVertex
100
AcDb2dVertex
 10
-4.621180769449415
 20
-0.3386933324558259
 30
0.0
  0
VERTEX
  5
10AEE
330
10AEB
100
AcDbEntity
  8
Layer 1
 62
     7
370
    35
100
AcDbVertex
100
AcDb2dVertex
 10
-4.621180769449415
 20
0.1613069972666137
 30
0.0
  0
SEQEND
  5
10AEF
330
10AEB
100
AcDbEntity
  8
Layer 1
370
    35
  0
POLYLINE
  5
10AF0
330
E757
100
AcDbEntity
  8
Layer 1
 62
     7
370
    18
100
AcDb2dPolyline
 66
     1
 10
0.0
 20
0.0
 30
0.0
  0
VERTEX
  5
10AF1
330
10AF0
100
AcDbEntity
  8
Layer 1
 62
     7
370
    18
100
AcDbVertex
100
AcDb2dVertex
 10
-3.127846180077521
 20
-0.3220239421230107
 30
0.0
  0
VERTEX
  5
10AF2
330
10AF0
100
AcDbEntity
  8
Layer 1
 62
     7
370
    18
100
AcDbVertex
100
AcDb2dVertex
 10
-3.111176789744707
 20
-0.338693332455826
 30
0.0
  0
SEQEND
  5
10AF3
330
10AF0
100
AcDbEntity
  8
Layer 1
370
    18
  0
POLYLINE
  5
10AF4
330
E757
100
AcDbEntity
  8
Layer 1
 62
     7
370
    18
100
AcDb2dPolyline
 66
     1
 10
0.0
 20
0.0
 30
0.0
  0
VERTEX
  5
10AF5
330
10AF4
100
AcDbEntity
  8
Layer 1
 62
     7
370
    18
100
AcDbVertex
100
AcDb2dVertex
 10
-3.127846180077521
 20
-0.0553543869289757
 30
0.0
  0
VERTEX
  5
10AF6
330
10AF4
100
AcDbEntity
  8
Layer 1
 62
     7
370
    18
100
AcDbVertex
100
AcDb2dVertex
 10
-2.844520797927672
 20
-0.338693332455826
 30
0.0
  0
SEQEND
  5
10AF7
330
10AF4
100
AcDbEntity
  8
Layer 1
370
    18
  0
POLYLINE
  5
10AF8
330
E757
100
AcDbEntity
  8
Layer 1
 62
     7
370
    18
100
AcDb2dPolyline
 66
     1
 10
0.0
 20
0.0
 30
0.0
  0
VERTEX
  5
10AF9
330
10AF8
100
AcDbEntity
  8
Layer 1
 62
     7
370
    18
100
AcDbVertex
100
AcDb2dVertex
 10
-3.08118816319804
 20
0.1613069972666136
 30
0.0
  0
VERTEX
  5
10AFA
330
10AF8
100
AcDbEntity
  8
Layer 1
 62
     7
370
    18
100
AcDbVertex
100
AcDb2dVertex
 10
-2.5811878334756
 20
-0.338693332455826
 30
0.0
  0
SEQEND
  5
10AFB
330
10AF8
100
AcDbEntity
  8
Layer 1
370
    18
  0
POLYLINE
  5
10AFC
330
E757
100
AcDbEntity
  8
Layer 1
 62
     7
370
    18
100
AcDb2dPolyline
 66
     1
 10
0.0
 20
0.0
 30
0.0
  0
VERTEX
  5
10AFD
330
10AFC
100
AcDbEntity
  8
Layer 1
 62
     7
370
    18
100
AcDbVertex
100
AcDb2dVertex
 10
-2.814518608004005
 20
0.1613069972666136
 30
0.0
  0
VERTEX
  5
10AFE
330
10AFC
100
AcDbEntity
  8
Layer 1
 62
     7
370
    18
100
AcDbVertex
100
AcDb2dVertex
 10
-2.377845685493862
 20
-0.2753523618665298
 30
0.0
  0
SEQEND
  5
10AFF
330
10AFC
100
AcDbEntity
  8
Layer 1
370
    18
  0
POLYLINE
  5
10B00
330
E757
100
AcDbEntity
  8
Layer 1
 62
     7
370
    18
100
AcDb2dPolyline
 66
     1
 10
0.0
 20
0.0
 30
0.0
  0
VERTEX
  5
10B01
330
10B00
100
AcDbEntity
  8
Layer 1
 62
     7
370
    18
100
AcDbVertex
100
AcDb2dVertex
 10
-2.551185643551934
 20
0.1613069972666136
 30
0.0
  0
VERTEX
  5
10B02
330
10B00
100
AcDbEntity
  8
Layer 1
 62
     7
370
    18
100
AcDbVertex
100
AcDb2dVertex
 10
-2.377845685493862
 20
-0.0120193974144577
 30
0.0
  0
SEQEND
  5
10B03
330
10B00
100
AcDbEntity
  8
Layer 1
370
    18
  0
POLYLINE
  5
10B04
330
E757
100
AcDbEntity
  8
Layer 1
 62
     7
370
    35
100
AcDb2dPolyline
 66
     1
 10
0.0
 20
0.0
 30
0.0
  0
VERTEX
  5
10B05
330
10B04
100
AcDbEntity
  8
Layer 1
 62
     7
370
    35
100
AcDbVertex
100
AcDb2dVertex
 10
-3.127846180077521
 20
0.1613069972666136
 30
0.0
  0
VERTEX
  5
10B06
330
10B04
100
AcDbEntity
  8
Layer 1
 62
     7
370
    35
100
AcDbVertex
100
AcDb2dVertex
 10
-3.127846180077521
 20
-0.338693332455826
 30
0.0
  0
VERTEX
  5
10B07
330
10B04
100
AcDbEntity
  8
Layer 1
 62
     7
370
    35
100
AcDbVertex
100
AcDb2dVertex
 10
-2.377845685493862
 20
-0.338693332455826
 30
0.0
  0
VERTEX
  5
10B08
330
10B04
100
AcDbEntity
  8
Layer 1
 62
     7
370
    35
100
AcDbVertex
100
AcDb2dVertex
 10
-2.377845685493862
 20
0.1613069972666136
 30
0.0
  0
SEQEND
  5
10B09
330
10B04
100
AcDbEntity
  8
Layer 1
370
    35
  0
POLYLINE
  5
10B0A
330
E757
100
AcDbEntity
  8
Layer 1
 62
     7
370
    18
100
AcDb2dPolyline
 66
     1
 10
0.0
 20
0.0
 30
0.0
  0
VERTEX
  5
10B0B
330
10B0A
100
AcDbEntity
  8
Layer 1
 62
     7
370
    18
100
AcDbVertex
100
AcDb2dVertex
 10
-7.337850583945703
 20
-5.07535688353965
 30
0.0
  0
VERTEX
  5
10B0C
330
10B0A
100
AcDbEntity
  8
Layer 1
 62
     7
370
    18
100
AcDbVertex
100
AcDb2dVertex
 10
-7.114516018266186
 20
-4.852022317860134
 30
0.0
  0
SEQEND
  5
10B0D
330
10B0A
100
AcDbEntity
  8
Layer 1
370
    18
  0
POLYLINE
  5
10B0E
330
E757
100
AcDbEntity
  8
Layer 1
 62
     7
370
    18
100
AcDb2dPolyline
 66
     1
 10
0.0
 20
0.0
 30
0.0
  0
VERTEX
  5
10B0F
330
10B0E
100
AcDbEntity
  8
Layer 1
 62
     7
370
    18
100
AcDbVertex
100
AcDb2dVertex
 10
-7.601183548397775
 20
-5.07535688353965
 30
0.0
  0
VERTEX
  5
10B10
330
10B0E
100
AcDbEntity
  8
Layer 1
 62
     7
370
    18
100
AcDbVertex
100
AcDb2dVertex
 10
-7.114516018266186
 20
-4.588689353408062
 30
0.0
  0
SEQEND
  5
10B11
330
10B0E
100
AcDbEntity
  8
Layer 1
370
    18
  0
POLYLINE
  5
10B12
330
E757
100
AcDbEntity
  8
Layer 1
 62
     7
370
    18
100
AcDb2dPolyline
 66
     1
 10
0.0
 20
0.0
 30
0.0
  0
VERTEX
  5
10B13
330
10B12
100
AcDbEntity
  8
Layer 1
 62
     7
370
    18
100
AcDbVertex
100
AcDb2dVertex
 10
-7.864516512849846
 20
-5.072027074486188
 30
0.0
  0
VERTEX
  5
10B14
330
10B12
100
AcDbEntity
  8
Layer 1
 62
     7
370
    18
100
AcDbVertex
100
AcDb2dVertex
 10
-7.117852609008149
 20
-4.325356388955991
 30
0.0
  0
SEQEND
  5
10B15
330
10B12
100
AcDbEntity
  8
Layer 1
370
    18
  0
POLYLINE
  5
10B16
330
E757
100
AcDbEntity
  8
Layer 1
 62
     7
370
    18
100
AcDb2dPolyline
 66
     1
 10
0.0
 20
0.0
 30
0.0
  0
VERTEX
  5
10B17
330
10B16
100
AcDbEntity
  8
Layer 1
 62
     7
370
    18
100
AcDbVertex
100
AcDb2dVertex
 10
-7.864516512849846
 20
-4.808694110034116
 30
0.0
  0
VERTEX
  5
10B18
330
10B16
100
AcDbEntity
  8
Layer 1
 62
     7
370
    18
100
AcDbVertex
100
AcDb2dVertex
 10
-7.381185573460221
 20
-4.325356388955991
 30
0.0
  0
SEQEND
  5
10B19
330
10B16
100
AcDbEntity
  8
Layer 1
370
    18
  0
POLYLINE
  5
10B1A
330
E757
100
AcDbEntity
  8
Layer 1
 62
     7
370
    18
100
AcDb2dPolyline
 66
     1
 10
0.0
 20
0.0
 30
0.0
  0
VERTEX
  5
10B1B
330
10B1A
100
AcDbEntity
  8
Layer 1
 62
     7
370
    18
100
AcDbVertex
100
AcDb2dVertex
 10
-7.864516512849846
 20
-4.542024554840081
 30
0.0
  0
VERTEX
  5
10B1C
330
10B1A
100
AcDbEntity
  8
Layer 1
 62
     7
370
    18
100
AcDbVertex
100
AcDb2dVertex
 10
-7.647855128654256
 20
-4.325356388955991
 30
0.0
  0
SEQEND
  5
10B1D
330
10B1A
100
AcDbEntity
  8
Layer 1
370
    18
  0
POLYLINE
  5
10B1E
330
E757
100
AcDbEntity
  8
Layer 1
 62
     7
370
    35
100
AcDb2dPolyline
 66
     1
 10
0.0
 20
0.0
 30
0.0
  0
VERTEX
  5
10B1F
330
10B1E
100
AcDbEntity
  8
Layer 1
 62
     7
370
    35
100
AcDbVertex
100
AcDb2dVertex
 10
-7.864516512849846
 20
-5.07535688353965
 30
0.0
  0
VERTEX
  5
10B20
330
10B1E
100
AcDbEntity
  8
Layer 1
 62
     7
370
    35
100
AcDbVertex
100
AcDb2dVertex
 10
-7.114516018266186
 20
-5.07535688353965
 30
0.0
  0
VERTEX
  5
10B21
330
10B1E
100
AcDbEntity
  8
Layer 1
 62
     7
370
    35
100
AcDbVertex
100
AcDb2dVertex
 10
-7.114516018266186
 20
-4.325356388955991
 30
0.0
  0
VERTEX
  5
10B22
330
10B1E
100
AcDbEntity
  8
Layer 1
 62
     7
370
    35
100
AcDbVertex
100
AcDb2dVertex
 10
-7.864516512849846
 20
-4.325356388955991
 30
0.0
  0
VERTEX
  5
10B23
330
10B1E
100
AcDbEntity
  8
Layer 1
 62
     7
370
    35
100
AcDbVertex
100
AcDb2dVertex
 10
-7.864516512849846
 20
-2.825362181477172
 30
0.0
  0
SEQEND
  5
10B24
330
10B1E
100
AcDbEntity
  8
Layer 1
370
    35
  0
POLYLINE
  5
10B25
330
E757
100
AcDbEntity
  8
Layer 1
 62
     7
370
    35
100
AcDb2dPolyline
 66
     1
 10
0.0
 20
0.0
 30
0.0
  0
VERTEX
  5
10B26
330
10B25
100
AcDbEntity
  8
Layer 1
 62
     7
370
    35
100
AcDbVertex
100
AcDb2dVertex
 10
-7.864516512849847
 20
-7.619598040392219
 30
0.0
  0
VERTEX
  5
10B27
330
10B25
100
AcDbEntity
  8
Layer 1
 62
     7
370
    35
100
AcDbVertex
100
AcDb2dVertex
 10
-7.864516512849846
 20
-5.07535688353965
 30
0.0
  0
SEQEND
  5
10B28
330
10B25
100
AcDbEntity
  8
Layer 1
370
    35
  0
POLYLINE
  5
10B29
330
E757
100
AcDbEntity
  8
Layer 1
 62
     7
370
    35
100
AcDb2dPolyline
 66
     1
 10
0.0
 20
0.0
 30
0.0
  0
VERTEX
  5
10B2A
330
10B29
100
AcDbEntity
  8
Layer 1
 62
     7
370
    35
100
AcDbVertex
100
AcDb2dVertex
 10
-2.377845685493862
 20
0.1613069972666136
 30
0.0
  0
VERTEX
  5
10B2B
330
10B29
100
AcDbEntity
  8
Layer 1
 62
     7
370
    35
100
AcDbVertex
100
AcDb2dVertex
 10
1.472159566044323
 20
0.1613069972666133
 30
0.0
  0
SEQEND
  5
10B2C
330
10B29
100
AcDbEntity
  8
Layer 1
370
    35
  0
POLYLINE
  5
10B2D
330
E757
100
AcDbEntity
  8
Layer 1
 62
     7
370
    35
100
AcDb2dPolyline
 66
     1
 10
0.0
 20
0.0
 30
0.0
  0
VERTEX
  5
10B2E
330
10B2D
100
AcDbEntity
  8
Layer 1
 62
     7
370
    35
100
AcDbVertex
100
AcDb2dVertex
 10
-4.621180769449415
 20
0.1613069972666137
 30
0.0
  0
VERTEX
  5
10B2F
330
10B2D
100
AcDbEntity
  8
Layer 1
 62
     7
370
    35
100
AcDbVertex
100
AcDb2dVertex
 10
-3.127846180077521
 20
0.1613069972666136
 30
0.0
  0
SEQEND
  5
10B30
330
10B2D
100
AcDbEntity
  8
Layer 1
370
    35
  0
POLYLINE
  5
10B31
330
E757
100
AcDbEntity
  8
Layer 1
 62
     7
370
    25
100
AcDb2dPolyline
 66
     1
 10
0.0
 20
0.0
 30
0.0
  0
VERTEX
  5
10B32
330
10B31
100
AcDbEntity
  8
Layer 1
 62
     7
370
    25
100
AcDbVertex
100
AcDb2dVertex
 10
-7.864516512849846
 20
-2.082021305000438
 30
0.0
  0
VERTEX
  5
10B33
330
10B31
100
AcDbEntity
  8
Layer 1
 62
     7
370
    25
100
AcDbVertex
100
AcDb2dVertex
 10
-7.864516512849846
 20
0.1613069972666139
 30
0.0
  0
VERTEX
  5
10B34
330
10B31
100
AcDbEntity
  8
Layer 1
 62
     7
370
    25
100
AcDbVertex
100
AcDb2dVertex
 10
-6.121181758616733
 20
0.1613069972666138
 30
0.0
  0
SEQEND
  5
10B35
330
10B31
100
AcDbEntity
  8
Layer 1
370
    25
  0
POLYLINE
  5
10B36
330
E757
100
AcDbEntity
  8
Layer 1
 62
     7
370
     9
100
AcDb2dPolyline
 66
     1
 10
0.0
 20
0.0
 30
0.0
  0
VERTEX
  5
10B37
330
10B36
100
AcDbEntity
  8
Layer 1
 62
     7
370
     9
100
AcDbVertex
100
AcDb2dVertex
 10
-7.864516512849846
 20
-5.07535688353965
 30
0.0
  0
VERTEX
  5
10B38
330
10B36
100
AcDbEntity
  8
Layer 1
 62
     7
370
     9
100
AcDbVertex
100
AcDb2dVertex
 10
-7.864516512849846
 20
-4.325356388955991
 30
0.0
  0
SEQEND
  5
10B39
330
10B36
100
AcDbEntity
  8
Layer 1
370
     9
  0
POLYLINE
  5
10B3A
330
E757
100
AcDbEntity
  8
Layer 1
 62
     7
370
     9
100
AcDb2dPolyline
 66
     1
 10
0.0
 20
0.0
 30
0.0
  0
VERTEX
  5
10B3B
330
10B3A
100
AcDbEntity
  8
Layer 1
 62
     7
370
     9
100
AcDbVertex
100
AcDb2dVertex
 10
-3.127846180077521
 20
0.1613069972666136
 30
0.0
  0
VERTEX
  5
10B3C
330
10B3A
100
AcDbEntity
  8
Layer 1
 62
     7
370
     9
100
AcDbVertex
100
AcDb2dVertex
 10
-2.377845685493862
 20
0.1613069972666136
 30
0.0
  0
SEQEND
  5
10B3D
330
10B3A
100
AcDbEntity
  8
Layer 1
370
     9
  0
POLYLINE
  5
10B3E
330
E757
100
AcDbEntity
  8
Layer 1
 62
     7
370
     9
100
AcDb2dPolyline
 66
     1
 10
0.0
 20
0.0
 30
0.0
  0
VERTEX
  5
10B3F
330
10B3E
100
AcDbEntity
  8
Layer 1
 62
     7
370
     9
100
AcDbVertex
100
AcDb2dVertex
 10
-6.121181758616733
 20
0.1613069972666138
 30
0.0
  0
VERTEX
  5
10B40
330
10B3E
100
AcDbEntity
  8
Layer 1
 62
     7
370
     9
100
AcDbVertex
100
AcDb2dVertex
 10
-4.621180769449415
 20
0.1613069972666137
 30
0.0
  0
SEQEND
  5
10B41
330
10B3E
100
AcDbEntity
  8
Layer 1
370
     9
  0
POLYLINE
  5
10B42
330
E757
100
AcDbEntity
  8
Layer 1
 62
     7
370
     9
100
AcDb2dPolyline
 66
     1
 10
0.0
 20
0.0
 30
0.0
  0
VERTEX
  5
10B43
330
10B42
100
AcDbEntity
  8
Layer 1
 62
     7
370
     9
100
AcDbVertex
100
AcDb2dVertex
 10
-5.40118345395674
 20
-0.3386933324558258
 30
0.0
  0
VERTEX
  5
10B44
330
10B42
100
AcDbEntity
  8
Layer 1
 62
     7
370
     9
100
AcDbVertex
100
AcDb2dVertex
 10
-6.121181758616733
 20
-0.3386933324558258
 30
0.0
  0
SEQEND
  5
10B45
330
10B42
100
AcDbEntity
  8
Layer 1
370
     9
  0
POLYLINE
  5
10B46
330
E757
100
AcDbEntity
  8
Layer 1
 62
     7
370
     9
100
AcDb2dPolyline
 66
     1
 10
0.0
 20
0.0
 30
0.0
  0
VERTEX
  5
10B47
330
10B46
100
AcDbEntity
  8
Layer 1
 62
     7
370
     9
100
AcDbVertex
100
AcDb2dVertex
 10
-7.864516512849846
 20
-2.825362181477172
 30
0.0
  0
VERTEX
  5
10B48
330
10B46
100
AcDbEntity
  8
Layer 1
 62
     7
370
     9
100
AcDbVertex
100
AcDb2dVertex
 10
-7.864516512849846
 20
-2.082021305000438
 30
0.0
  0
SEQEND
  5
10B49
330
10B46
100
AcDbEntity
  8
Layer 1
370
     9
  0
POLYLINE
  5
10B4A
330
E757
100
AcDbEntity
  8
Layer 1
 62
     7
370
     9
100
AcDb2dPolyline
 66
     1
 10
0.0
 20
0.0
 30
0.0
  0
VERTEX
  5
10B4B
330
10B4A
100
AcDbEntity
  8
Layer 1
 62
     7
370
     9
100
AcDbVertex
100
AcDb2dVertex
 10
-7.991184890651437
 20
-5.07535688353965
 30
0.0
  0
VERTEX
  5
10B4C
330
10B4A
100
AcDbEntity
  8
Layer 1
 62
     7
370
     9
100
AcDbVertex
100
AcDb2dVertex
 10
-8.144518867634733
 20
-5.07535688353965
 30
0.0
  0
SEQEND
  5
10B4D
330
10B4A
100
AcDbEntity
  8
Layer 1
370
     9
  0
POLYLINE
  5
10B4E
330
E757
100
AcDbEntity
  8
Layer 1
 62
     7
370
     9
100
AcDb2dPolyline
 66
     1
 10
0.0
 20
0.0
 30
0.0
  0
VERTEX
  5
10B4F
330
10B4E
100
AcDbEntity
  8
Layer 1
 62
     7
370
     9
100
AcDbVertex
100
AcDb2dVertex
 10
-7.991184890651437
 20
0.1613069972666139
 30
0.0
  0
VERTEX
  5
10B50
330
10B4E
100
AcDbEntity
  8
Layer 1
 62
     7
370
     9
100
AcDbVertex
100
AcDb2dVertex
 10
-8.144518867634733
 20
0.1613069972666139
 30
0.0
  0
SEQEND
  5
10B51
330
10B4E
100
AcDbEntity
  8
Layer 1
370
     9
  0
POLYLINE
  5
10B52
330
E757
100
AcDbEntity
  8
Layer 1
 62
     7
370
     9
100
AcDb2dPolyline
 66
     1
 10
0.0
 20
0.0
 30
0.0
  0
VERTEX
  5
10B53
330
10B52
100
AcDbEntity
  8
Layer 1
 62
     7
370
     9
100
AcDbVertex
100
AcDb2dVertex
 10
-8.224327339583684
 20
-4.982027286403688
 30
0.0
  0
VERTEX
  5
10B54
330
10B52
100
AcDbEntity
  8
Layer 1
 62
     7
370
     9
100
AcDbVertex
100
AcDb2dVertex
 10
-8.224327339583684
 20
0.0679774001306531
 30
0.0
  0
SEQEND
  5
10B55
330
10B52
100
AcDbEntity
  8
Layer 1
370
     9
  0
POLYLINE
  5
10B56
330
E757
100
AcDbEntity
  8
Layer 1
 62
     7
370
     9
100
AcDb2dPolyline
 66
     1
 10
0.0
 20
0.0
 30
0.0
  0
VERTEX
  5
10B57
330
10B56
100
AcDbEntity
  8
Layer 1
 62
     7
370
     9
100
AcDbVertex
100
AcDb2dVertex
 10
-7.991184890651437
 20
0.1613069972666139
 30
0.0
  0
VERTEX
  5
10B58
330
10B56
100
AcDbEntity
  8
Layer 1
 62
     7
370
     9
100
AcDbVertex
100
AcDb2dVertex
 10
-8.225432028676202
 20
0.1613069972666139
 30
0.0
  0
SEQEND
  5
10B59
330
10B56
100
AcDbEntity
  8
Layer 1
370
     9
  0
POLYLINE
  5
10B5A
330
E757
100
AcDbEntity
  8
Layer 1
 62
     7
370
     9
100
AcDb2dPolyline
 66
     1
 10
0.0
 20
0.0
 30
0.0
  0
VERTEX
  5
10B5B
330
10B5A
100
AcDbEntity
  8
Layer 1
 62
     7
370
     9
100
AcDbVertex
100
AcDb2dVertex
 10
-7.991184890651437
 20
-5.07535688353965
 30
0.0
  0
VERTEX
  5
10B5C
330
10B5A
100
AcDbEntity
  8
Layer 1
 62
     7
370
     9
100
AcDbVertex
100
AcDb2dVertex
 10
-8.226051119719208
 20
-5.07535688353965
 30
0.0
  0
SEQEND
  5
10B5D
330
10B5A
100
AcDbEntity
  8
Layer 1
370
     9
  0
POLYLINE
  5
10B5E
330
E757
100
AcDbEntity
  8
Layer 1
 62
     7
370
    25
100
AcDb2dPolyline
 66
     1
 10
0.0
 20
0.0
 30
0.0
  0
VERTEX
  5
10B5F
330
10B5E
100
AcDbEntity
  8
Layer 1
 62
     7
370
    25
100
AcDbVertex
100
AcDb2dVertex
 10
-8.224327339583684
 20
-5.07535688353965
 30
0.0
  0
VERTEX
  5
10B60
330
10B5E
100
AcDbEntity
  8
Layer 1
 62
     7
370
    25
100
AcDbVertex
100
AcDb2dVertex
 10
-8.224327339583684
 20
-4.978690695661725
 30
0.0
  0
SEQEND
  5
10B61
330
10B5E
100
AcDbEntity
  8
Layer 1
370
    25
  0
POLYLINE
  5
10B62
330
E757
100
AcDbEntity
  8
Layer 1
370
     0
100
AcDb2dPolyline
 66
     1
 10
0.0
 20
0.0
 30
0.0
  0
VERTEX
  5
10B63
330
10B62
100
AcDbEntity
  8
Layer 1
370
     0
100
AcDbVertex
100
AcDb2dVertex
 10
-8.244333320658462
 20
-5.042024884562521
 30
0.0
  0
VERTEX
  5
10B64
330
10B62
100
AcDbEntity
  8
Layer 1
370
     0
100
AcDbVertex
100
AcDb2dVertex
 10
-8.190995340606555
 20
-5.095356082925928
 30
0.0
  0
VERTEX
  5
10B65
330
10B62
100
AcDbEntity
  8
Layer 1
370
     0
100
AcDbVertex
100
AcDb2dVertex
 10
-8.257666120249314
 20
-5.055357684153372
 30
0.0
  0
SEQEND
  5
10B66
330
10B62
100
AcDbEntity
  8
Layer 1
370
     0
  0
HATCH
  5
10B67
330
E757
100
AcDbEntity
  8
Layer 1
 62
     7
100
AcDbHatch
 10
0.0
 20
0.0
 30
0.0
210
0.0
220
0.0
230
1.0
  2
SOLID
 70
     1
 71
     0
 91
        1
 92
        1
 93
        3
 72
     1
 10
-8.244333320658462
 20
-5.042024884562521
 11
-8.190995340606555
 21
-5.095356082925928
 72
     1
 10
-8.190995340606555
 20
-5.095356082925928
 11
-8.257666120249314
 21
-5.055357684153372
 72
     1
 10
-8.257666120249314
 20
-5.055357684153372
 11
-8.244333320658462
 21
-5.042024884562521
 97
        0
 75
     0
 76
     1
 98
        0
450
        0
451
        0
460
0.0
461
0.0
452
        0
462
0.0
453
        0
470

  0
POLYLINE
  5
10B68
330
E757
100
AcDbEntity
  8
Layer 1
370
     0
100
AcDb2dPolyline
 66
     1
 10
0.0
 20
0.0
 30
0.0
  0
VERTEX
  5
10B69
330
10B68
100
AcDbEntity
  8
Layer 1
370
     0
100
AcDbVertex
100
AcDb2dVertex
 10
-8.190995340606555
 20
-5.095356082925928
 30
0.0
  0
VERTEX
  5
10B6A
330
10B68
100
AcDbEntity
  8
Layer 1
370
     0
100
AcDbVertex
100
AcDb2dVertex
 10
-8.257666120249314
 20
-5.055357684153372
 30
0.0
  0
VERTEX
  5
10B6B
330
10B68
100
AcDbEntity
  8
Layer 1
370
     0
100
AcDbVertex
100
AcDb2dVertex
 10
-8.200998331143944
 20
-5.10868888251678
 30
0.0
  0
SEQEND
  5
10B6C
330
10B68
100
AcDbEntity
  8
Layer 1
370
     0
  0
HATCH
  5
10B6D
330
E757
100
AcDbEntity
  8
Layer 1
 62
     7
100
AcDbHatch
 10
0.0
 20
0.0
 30
0.0
210
0.0
220
0.0
230
1.0
  2
SOLID
 70
     1
 71
     0
 91
        1
 92
        1
 93
        3
 72
     1
 10
-8.190995340606555
 20
-5.095356082925928
 11
-8.257666120249314
 21
-5.055357684153372
 72
     1
 10
-8.257666120249314
 20
-5.055357684153372
 11
-8.200998331143944
 21
-5.10868888251678
 72
     1
 10
-8.200998331143944
 20
-5.10868888251678
 11
-8.190995340606555
 21
-5.095356082925929
 97
        0
 75
     0
 76
     1
 98
        0
450
        0
451
        0
460
0.0
461
0.0
452
        0
462
0.0
453
        0
470

  0
POLYLINE
  5
10B6E
330
E757
100
AcDbEntity
  8
Layer 1
 62
     7
370
    25
100
AcDb2dPolyline
 66
     1
 10
0.0
 20
0.0
 30
0.0
  0
VERTEX
  5
10B6F
330
10B6E
100
AcDbEntity
  8
Layer 1
 62
     7
370
    25
100
AcDbVertex
100
AcDb2dVertex
 10
-8.224327339583684
 20
0.1613069972666139
 30
0.0
  0
VERTEX
  5
10B70
330
10B6E
100
AcDbEntity
  8
Layer 1
 62
     7
370
    25
100
AcDbVertex
100
AcDb2dVertex
 10
-8.224327339583684
 20
0.0679774001306531
 30
0.0
  0
SEQEND
  5
10B71
330
10B6E
100
AcDbEntity
  8
Layer 1
370
    25
  0
POLYLINE
  5
10B72
330
E757
100
AcDbEntity
  8
Layer 1
370
     0
100
AcDb2dPolyline
 66
     1
 10
0.0
 20
0.0
 30
0.0
  0
VERTEX
  5
10B73
330
10B72
100
AcDbEntity
  8
Layer 1
370
     0
100
AcDbVertex
100
AcDb2dVertex
 10
-8.200998331143944
 20
0.1279817799779846
 30
0.0
  0
VERTEX
  5
10B74
330
10B72
100
AcDbEntity
  8
Layer 1
370
     0
100
AcDbVertex
100
AcDb2dVertex
 10
-8.257666120249314
 20
0.184649569083355
 30
0.0
  0
VERTEX
  5
10B75
330
10B72
100
AcDbEntity
  8
Layer 1
370
     0
100
AcDbVertex
100
AcDb2dVertex
 10
-8.190995340606555
 20
0.1413145795688369
 30
0.0
  0
SEQEND
  5
10B76
330
10B72
100
AcDbEntity
  8
Layer 1
370
     0
  0
HATCH
  5
10B77
330
E757
100
AcDbEntity
  8
Layer 1
 62
     7
100
AcDbHatch
 10
0.0
 20
0.0
 30
0.0
210
0.0
220
0.0
230
1.0
  2
SOLID
 70
     1
 71
     0
 91
        1
 92
        1
 93
        3
 72
     1
 10
-8.200998331143944
 20
0.1279817799779846
 11
-8.257666120249314
 21
0.184649569083355
 72
     1
 10
-8.257666120249314
 20
0.184649569083355
 11
-8.190995340606555
 21
0.1413145795688369
 72
     1
 10
-8.190995340606555
 20
0.1413145795688369
 11
-8.200998331143944
 21
0.1279817799779846
 97
        0
 75
     0
 76
     1
 98
        0
450
        0
451
        0
460
0.0
461
0.0
452
        0
462
0.0
453
        0
470

  0
POLYLINE
  5
10B78
330
E757
100
AcDbEntity
  8
Layer 1
370
     0
100
AcDb2dPolyline
 66
     1
 10
0.0
 20
0.0
 30
0.0
  0
VERTEX
  5
10B79
330
10B78
100
AcDbEntity
  8
Layer 1
370
     0
100
AcDbVertex
100
AcDb2dVertex
 10
-8.257666120249314
 20
0.184649569083355
 30
0.0
  0
VERTEX
  5
10B7A
330
10B78
100
AcDbEntity
  8
Layer 1
370
     0
100
AcDbVertex
100
AcDb2dVertex
 10
-8.190995340606555
 20
0.1413145795688369
 30
0.0
  0
VERTEX
  5
10B7B
330
10B78
100
AcDbEntity
  8
Layer 1
370
     0
100
AcDbVertex
100
AcDb2dVertex
 10
-8.244333320658462
 20
0.1946457779322444
 30
0.0
  0
SEQEND
  5
10B7C
330
10B78
100
AcDbEntity
  8
Layer 1
370
     0
  0
HATCH
  5
10B7D
330
E757
100
AcDbEntity
  8
Layer 1
 62
     7
100
AcDbHatch
 10
0.0
 20
0.0
 30
0.0
210
0.0
220
0.0
230
1.0
  2
SOLID
 70
     1
 71
     0
 91
        1
 92
        1
 93
        3
 72
     1
 10
-8.257666120249314
 20
0.184649569083355
 11
-8.190995340606555
 21
0.1413145795688369
 72
     1
 10
-8.190995340606555
 20
0.1413145795688369
 11
-8.244333320658462
 21
0.1946457779322444
 72
     1
 10
-8.244333320658462
 20
0.1946457779322444
 11
-8.257666120249314
 21
0.184649569083355
 97
        0
 75
     0
 76
     1
 98
        0
450
        0
451
        0
460
0.0
461
0.0
452
        0
462
0.0
453
        0
470

  0
POLYLINE
  5
10BAF
330
E757
100
AcDbEntity
  8
Layer 1
 62
     7
370
     9
100
AcDb2dPolyline
 66
     1
 10
0.0
 20
0.0
 30
0.0
  0
VERTEX
  5
10BB0
330
10BAF
100
AcDbEntity
  8
Layer 1
 62
     7
370
     9
100
AcDbVertex
100
AcDb2dVertex
 10
-7.864516512849846
 20
0.2879753750682052
 30
0.0
  0
VERTEX
  5
10BB1
330
10BAF
100
AcDbEntity
  8
Layer 1
 62
     7
370
     9
100
AcDbVertex
100
AcDb2dVertex
 10
-7.864516512849846
 20
0.4879809323079823
 30
0.0
  0
SEQEND
  5
10BB2
330
10BAF
100
AcDbEntity
  8
Layer 1
370
     9
  0
POLYLINE
  5
10BB3
330
E757
100
AcDbEntity
  8
Layer 1
 62
     7
370
     9
100
AcDb2dPolyline
 66
     1
 10
0.0
 20
0.0
 30
0.0
  0
VERTEX
  5
10BB4
330
10BB3
100
AcDbEntity
  8
Layer 1
 62
     7
370
     9
100
AcDbVertex
100
AcDb2dVertex
 10
-2.377845685493862
 20
0.2879753750682049
 30
0.0
  0
VERTEX
  5
10BB5
330
10BB3
100
AcDbEntity
  8
Layer 1
 62
     7
370
     9
100
AcDbVertex
100
AcDb2dVertex
 10
-2.377845685493862
 20
0.4879809323079819
 30
0.0
  0
SEQEND
  5
10BB6
330
10BB3
100
AcDbEntity
  8
Layer 1
370
     9
  0
POLYLINE
  5
10BB7
330
E757
100
AcDbEntity
  8
Layer 1
 62
     7
370
     9
100
AcDb2dPolyline
 66
     1
 10
0.0
 20
0.0
 30
0.0
  0
VERTEX
  5
10BB8
330
10BB7
100
AcDbEntity
  8
Layer 1
 62
     7
370
     9
100
AcDbVertex
100
AcDb2dVertex
 10
-7.771186915713885
 20
0.4916259287497429
 30
0.0
  0
VERTEX
  5
10BB9
330
10BB7
100
AcDbEntity
  8
Layer 1
 62
     7
370
     9
100
AcDbVertex
100
AcDb2dVertex
 10
-2.471175282629824
 20
0.4916259287497426
 30
0.0
  0
SEQEND
  5
10BBA
330
10BB7
100
AcDbEntity
  8
Layer 1
370
     9
  0
POLYLINE
  5
10BBB
330
E757
100
AcDbEntity
  8
Layer 1
 62
     7
370
     9
100
AcDb2dPolyline
 66
     1
 10
0.0
 20
0.0
 30
0.0
  0
VERTEX
  5
10BBC
330
10BBB
100
AcDbEntity
  8
Layer 1
 62
     7
370
     9
100
AcDbVertex
100
AcDb2dVertex
 10
-2.377845685493862
 20
0.2879753750682049
 30
0.0
  0
VERTEX
  5
10BBD
330
10BBB
100
AcDbEntity
  8
Layer 1
 62
     7
370
     9
100
AcDbVertex
100
AcDb2dVertex
 10
-2.377845685493862
 20
0.5013002919169765
 30
0.0
  0
SEQEND
  5
10BBE
330
10BBB
100
AcDbEntity
  8
Layer 1
370
     9
  0
POLYLINE
  5
10BBF
330
E757
100
AcDbEntity
  8
Layer 1
 62
     7
370
     9
100
AcDb2dPolyline
 66
     1
 10
0.0
 20
0.0
 30
0.0
  0
VERTEX
  5
10BC0
330
10BBF
100
AcDbEntity
  8
Layer 1
 62
     7
370
     9
100
AcDbVertex
100
AcDb2dVertex
 10
-7.864516512849846
 20
0.2879753750682052
 30
0.0
  0
VERTEX
  5
10BC1
330
10BBF
100
AcDbEntity
  8
Layer 1
 62
     7
370
     9
100
AcDbVertex
100
AcDb2dVertex
 10
-7.864516512849846
 20
0.496125000188556
 30
0.0
  0
SEQEND
  5
10BC2
330
10BBF
100
AcDbEntity
  8
Layer 1
370
     9
  0
POLYLINE
  5
10BC3
330
E757
100
AcDbEntity
  8
Layer 1
 62
     7
370
    25
100
AcDb2dPolyline
 66
     1
 10
0.0
 20
0.0
 30
0.0
  0
VERTEX
  5
10BC4
330
10BC3
100
AcDbEntity
  8
Layer 1
 62
     7
370
    25
100
AcDbVertex
100
AcDb2dVertex
 10
-7.864516512849846
 20
0.4916259287497429
 30
0.0
  0
VERTEX
  5
10BC5
330
10BC3
100
AcDbEntity
  8
Layer 1
 62
     7
370
    25
100
AcDbVertex
100
AcDb2dVertex
 10
-7.767850324971922
 20
0.4916259287497429
 30
0.0
  0
SEQEND
  5
10BC6
330
10BC3
100
AcDbEntity
  8
Layer 1
370
    25
  0
POLYLINE
  5
10BC7
330
E757
100
AcDbEntity
  8
Layer 1
370
     0
100
AcDb2dPolyline
 66
     1
 10
0.0
 20
0.0
 30
0.0
  0
VERTEX
  5
10BC8
330
10BC7
100
AcDbEntity
  8
Layer 1
370
     0
100
AcDbVertex
100
AcDb2dVertex
 10
-7.831184513872717
 20
0.5116319098245193
 30
0.0
  0
VERTEX
  5
10BC9
330
10BC7
100
AcDbEntity
  8
Layer 1
370
     0
100
AcDbVertex
100
AcDb2dVertex
 10
-7.884515712236124
 20
0.4582871480841125
 30
0.0
  0
VERTEX
  5
10BCA
330
10BC7
100
AcDbEntity
  8
Layer 1
370
     0
100
AcDbVertex
100
AcDb2dVertex
 10
-7.844517313463569
 20
0.5249647094153716
 30
0.0
  0
SEQEND
  5
10BCB
330
10BC7
100
AcDbEntity
  8
Layer 1
370
     0
  0
HATCH
  5
10BCC
330
E757
100
AcDbEntity
  8
Layer 1
 62
     7
100
AcDbHatch
 10
0.0
 20
0.0
 30
0.0
210
0.0
220
0.0
230
1.0
  2
SOLID
 70
     1
 71
     0
 91
        1
 92
        1
 93
        3
 72
     1
 10
-7.831184513872717
 20
0.5116319098245193
 11
-7.884515712236124
 21
0.4582871480841125
 72
     1
 10
-7.884515712236124
 20
0.4582871480841125
 11
-7.844517313463569
 21
0.5249647094153716
 72
     1
 10
-7.844517313463569
 20
0.5249647094153716
 11
-7.831184513872717
 21
0.5116319098245193
 97
        0
 75
     0
 76
     1
 98
        0
450
        0
451
        0
460
0.0
461
0.0
452
        0
462
0.0
453
        0
470

  0
POLYLINE
  5
10BCD
330
E757
100
AcDbEntity
  8
Layer 1
370
     0
100
AcDb2dPolyline
 66
     1
 10
0.0
 20
0.0
 30
0.0
  0
VERTEX
  5
10BCE
330
10BCD
100
AcDbEntity
  8
Layer 1
370
     0
100
AcDbVertex
100
AcDb2dVertex
 10
-7.884515712236124
 20
0.4582871480841125
 30
0.0
  0
VERTEX
  5
10BCF
330
10BCD
100
AcDbEntity
  8
Layer 1
370
     0
100
AcDbVertex
100
AcDb2dVertex
 10
-7.844517313463569
 20
0.5249647094153716
 30
0.0
  0
VERTEX
  5
10BD0
330
10BCD
100
AcDbEntity
  8
Layer 1
370
     0
100
AcDbVertex
100
AcDb2dVertex
 10
-7.897855293515476
 20
0.4716335110519641
 30
0.0
  0
SEQEND
  5
10BD1
330
10BCD
100
AcDbEntity
  8
Layer 1
370
     0
  0
HATCH
  5
10BD2
330
E757
100
AcDbEntity
  8
Layer 1
 62
     7
100
AcDbHatch
 10
0.0
 20
0.0
 30
0.0
210
0.0
220
0.0
230
1.0
  2
SOLID
 70
     1
 71
     0
 91
        1
 92
        1
 93
        3
 72
     1
 10
-7.884515712236124
 20
0.4582871480841125
 11
-7.844517313463569
 21
0.5249647094153716
 72
     1
 10
-7.844517313463569
 20
0.5249647094153716
 11
-7.897855293515476
 21
0.4716335110519641
 72
     1
 10
-7.897855293515476
 20
0.4716335110519641
 11
-7.884515712236124
 21
0.4582871480841125
 97
        0
 75
     0
 76
     1
 98
        0
450
        0
451
        0
460
0.0
461
0.0
452
        0
462
0.0
453
        0
470

  0
POLYLINE
  5
10BD3
330
E757
100
AcDbEntity
  8
Layer 1
 62
     7
370
    25
100
AcDb2dPolyline
 66
     1
 10
0.0
 20
0.0
 30
0.0
  0
VERTEX
  5
10BD4
330
10BD3
100
AcDbEntity
  8
Layer 1
 62
     7
370
    25
100
AcDbVertex
100
AcDb2dVertex
 10
-2.377845685493862
 20
0.4916259287497426
 30
0.0
  0
VERTEX
  5
10BD5
330
10BD3
100
AcDbEntity
  8
Layer 1
 62
     7
370
    25
100
AcDbVertex
100
AcDb2dVertex
 10
-2.471175282629824
 20
0.4916259287497426
 30
0.0
  0
SEQEND
  5
10BD6
330
10BD3
100
AcDbEntity
  8
Layer 1
370
    25
  0
POLYLINE
  5
10BD7
330
E757
100
AcDbEntity
  8
Layer 1
370
     0
100
AcDb2dPolyline
 66
     1
 10
0.0
 20
0.0
 30
0.0
  0
VERTEX
  5
10BD8
330
10BD7
100
AcDbEntity
  8
Layer 1
370
     0
100
AcDbVertex
100
AcDb2dVertex
 10
-2.411184466159491
 20
0.4716335110519637
 30
0.0
  0
VERTEX
  5
10BD9
330
10BD7
100
AcDbEntity
  8
Layer 1
370
     0
100
AcDbVertex
100
AcDb2dVertex
 10
-2.354516677054121
 20
0.5249647094153711
 30
0.0
  0
VERTEX
  5
10BDA
330
10BD7
100
AcDbEntity
  8
Layer 1
370
     0
100
AcDbVertex
100
AcDb2dVertex
 10
-2.397851666568639
 20
0.4582871480841121
 30
0.0
  0
SEQEND
  5
10BDB
330
10BD7
100
AcDbEntity
  8
Layer 1
370
     0
  0
HATCH
  5
10BDC
330
E757
100
AcDbEntity
  8
Layer 1
 62
     7
100
AcDbHatch
 10
0.0
 20
0.0
 30
0.0
210
0.0
220
0.0
230
1.0
  2
SOLID
 70
     1
 71
     0
 91
        1
 92
        1
 93
        3
 72
     1
 10
-2.411184466159491
 20
0.4716335110519637
 11
-2.354516677054121
 21
0.5249647094153712
 72
     1
 10
-2.354516677054121
 20
0.5249647094153711
 11
-2.397851666568639
 21
0.458287148084112
 72
     1
 10
-2.397851666568639
 20
0.4582871480841121
 11
-2.411184466159491
 21
0.4716335110519637
 97
        0
 75
     0
 76
     1
 98
        0
450
        0
451
        0
460
0.0
461
0.0
452
        0
462
0.0
453
        0
470

  0
POLYLINE
  5
10BDD
330
E757
100
AcDbEntity
  8
Layer 1
370
     0
100
AcDb2dPolyline
 66
     1
 10
0.0
 20
0.0
 30
0.0
  0
VERTEX
  5
10BDE
330
10BDD
100
AcDbEntity
  8
Layer 1
370
     0
100
AcDbVertex
100
AcDb2dVertex
 10
-2.354516677054121
 20
0.5249647094153711
 30
0.0
  0
VERTEX
  5
10BDF
330
10BDD
100
AcDbEntity
  8
Layer 1
370
     0
100
AcDbVertex
100
AcDb2dVertex
 10
-2.397851666568639
 20
0.4582871480841121
 30
0.0
  0
VERTEX
  5
10BE0
330
10BDD
100
AcDbEntity
  8
Layer 1
370
     0
100
AcDbVertex
100
AcDb2dVertex
 10
-2.344520468205232
 20
0.5116319098245188
 30
0.0
  0
SEQEND
  5
10BE1
330
10BDD
100
AcDbEntity
  8
Layer 1
370
     0
  0
HATCH
  5
10BE2
330
E757
100
AcDbEntity
  8
Layer 1
 62
     7
100
AcDbHatch
 10
0.0
 20
0.0
 30
0.0
210
0.0
220
0.0
230
1.0
  2
SOLID
 70
     1
 71
     0
 91
        1
 92
        1
 93
        3
 72
     1
 10
-2.354516677054121
 20
0.5249647094153711
 11
-2.397851666568639
 21
0.458287148084112
 72
     1
 10
-2.397851666568639
 20
0.4582871480841121
 11
-2.344520468205232
 21
0.5116319098245189
 72
     1
 10
-2.344520468205232
 20
0.5116319098245188
 11
-2.354516677054121
 21
0.5249647094153711
 97
        0
 75
     0
 76
     1
 98
        0
450
        0
451
        0
460
0.0
461
0.0
452
        0
462
0.0
453
        0
470

  0
POLYLINE
  5
10BE3
330
E757
100
AcDbEntity
  8
Layer 1
 62
     7
370
    18
100
AcDb2dPolyline
 66
     1
 10
0.0
 20
0.0
 30
0.0
  0
VERTEX
  5
10BE4
330
10BE3
100
AcDbEntity
  8
Layer 1
 62
     7
370
    18
100
AcDbVertex
100
AcDb2dVertex
 10
-7.114516018266186
 20
-4.325356388955991
 30
0.0
  0
VERTEX
  5
10BE5
330
10BE3
100
AcDbEntity
  8
Layer 1
 62
     7
370
    18
100
AcDbVertex
100
AcDb2dVertex
 10
-3.401188916755481
 20
-6.468695475980156
 30
0.0
  0
SEQEND
  5
10BE6
330
10BE3
100
AcDbEntity
  8
Layer 1
370
    18
  0
POLYLINE
  5
10BE7
330
E757
100
AcDbEntity
  8
Layer 1
 62
     7
370
    18
100
AcDb2dPolyline
 66
     1
 10
0.0
 20
0.0
 30
0.0
  0
VERTEX
  5
10BE8
330
10BE7
100
AcDbEntity
  8
Layer 1
 62
     7
370
    18
100
AcDbVertex
100
AcDb2dVertex
 10
-7.114516018266186
 20
-5.07535688353965
 30
0.0
  0
VERTEX
  5
10BE9
330
10BE7
100
AcDbEntity
  8
Layer 1
 62
     7
370
    18
100
AcDbVertex
100
AcDb2dVertex
 10
-2.651188422171823
 20
-7.652025520643496
 30
0.0
  0
SEQEND
  5
10BEA
330
10BE7
100
AcDbEntity
  8
Layer 1
370
    18
  0
POLYLINE
  5
10BEB
330
E757
100
AcDbEntity
  8
Layer 1
 62
     7
370
    18
100
AcDb2dPolyline
 66
     1
 10
0.0
 20
0.0
 30
0.0
  0
VERTEX
  5
10BEC
330
10BEB
100
AcDbEntity
  8
Layer 1
 62
     7
370
    18
100
AcDbVertex
100
AcDb2dVertex
 10
-3.401188916755481
 20
-6.468695475980156
 30
0.0
  0
VERTEX
  5
10BED
330
10BEB
100
AcDbEntity
  8
Layer 1
 62
     7
370
    18
100
AcDbVertex
100
AcDb2dVertex
 10
-2.651188422171822
 20
-6.902025026059837
 30
0.0
  0
SEQEND
  5
10BEE
330
10BEB
100
AcDbEntity
  8
Layer 1
370
    18
  0
POLYLINE
  5
10BEF
330
E757
100
AcDbEntity
  8
Layer 1
 62
     7
370
    18
100
AcDb2dPolyline
 66
     1
 10
0.0
 20
0.0
 30
0.0
  0
VERTEX
  5
10BF0
330
10BEF
100
AcDbEntity
  8
Layer 1
 62
     7
370
    18
100
AcDbVertex
100
AcDb2dVertex
 10
-3.127846180077521
 20
-0.338693332455826
 30
0.0
  0
VERTEX
  5
10BF1
330
10BEF
100
AcDbEntity
  8
Layer 1
 62
     7
370
    18
100
AcDbVertex
100
AcDb2dVertex
 10
0.472158906599443
 20
-2.415354858148731
 30
0.0
  0
SEQEND
  5
10BF2
330
10BEF
100
AcDbEntity
  8
Layer 1
370
    18
  0
POLYLINE
  5
10BF3
330
E757
100
AcDbEntity
  8
Layer 1
 62
     7
370
    18
100
AcDb2dPolyline
 66
     1
 10
0.0
 20
0.0
 30
0.0
  0
VERTEX
  5
10BF4
330
10BF3
100
AcDbEntity
  8
Layer 1
 62
     7
370
    18
100
AcDbVertex
100
AcDb2dVertex
 10
-4.621180769449415
 20
0.1613069972666137
 30
0.0
  0
VERTEX
  5
10BF5
330
10BF3
100
AcDbEntity
  8
Layer 1
 62
     7
370
    18
100
AcDbVertex
100
AcDb2dVertex
 10
-0.1545098009245871
 20
-2.415354858148731
 30
0.0
  0
SEQEND
  5
10BF6
330
10BF3
100
AcDbEntity
  8
Layer 1
370
    18
  0
POLYLINE
  5
10BF7
330
E757
100
AcDbEntity
  8
Layer 1
 62
     7
370
    18
100
AcDb2dPolyline
 66
     1
 10
0.0
 20
0.0
 30
0.0
  0
VERTEX
  5
10BF8
330
10BF7
100
AcDbEntity
  8
Layer 1
 62
     7
370
    18
100
AcDbVertex
100
AcDb2dVertex
 10
-4.621180769449415
 20
-0.3386933324558259
 30
0.0
  0
VERTEX
  5
10BF9
330
10BF7
100
AcDbEntity
  8
Layer 1
 62
     7
370
    18
100
AcDbVertex
100
AcDb2dVertex
 10
-0.1545098009245871
 20
-2.915355187871171
 30
0.0
  0
SEQEND
  5
10BFA
330
10BF7
100
AcDbEntity
  8
Layer 1
370
    18
  0
POLYLINE
  5
10BFB
330
E757
100
AcDbEntity
  8
Layer 1
 62
     7
370
    18
100
AcDb2dPolyline
 66
     1
 10
0.0
 20
0.0
 30
0.0
  0
VERTEX
  5
10BFC
330
10BFB
100
AcDbEntity
  8
Layer 1
 62
     7
370
    18
100
AcDbVertex
100
AcDb2dVertex
 10
-5.40118345395674
 20
-0.3386933324558258
 30
0.0
  0
VERTEX
  5
10BFD
330
10BFB
100
AcDbEntity
  8
Layer 1
 62
     7
370
    18
100
AcDbVertex
100
AcDb2dVertex
 10
-0.9345124854319131
 20
-2.915355187871171
 30
0.0
  0
SEQEND
  5
10BFE
330
10BFB
100
AcDbEntity
  8
Layer 1
370
    18
  0
POLYLINE
  5
10BFF
330
E757
100
AcDbEntity
  8
Layer 1
 62
     7
370
    18
100
AcDb2dPolyline
 66
     1
 10
0.0
 20
0.0
 30
0.0
  0
VERTEX
  5
10C00
330
10BFF
100
AcDbEntity
  8
Layer 1
 62
     7
370
    18
100
AcDbVertex
100
AcDb2dVertex
 10
-5.40118345395674
 20
-0.9686850673448194
 30
0.0
  0
VERTEX
  5
10C01
330
10BFF
100
AcDbEntity
  8
Layer 1
 62
     7
370
    18
100
AcDbVertex
100
AcDb2dVertex
 10
-0.9345124854319131
 20
-3.548690295190628
 30
0.0
  0
SEQEND
  5
10C02
330
10BFF
100
AcDbEntity
  8
Layer 1
370
    18
  0
POLYLINE
  5
10C03
330
E757
100
AcDbEntity
  8
Layer 1
 62
     7
370
    18
100
AcDb2dPolyline
 66
     1
 10
0.0
 20
0.0
 30
0.0
  0
VERTEX
  5
10C04
330
10C03
100
AcDbEntity
  8
Layer 1
 62
     7
370
    18
100
AcDbVertex
100
AcDb2dVertex
 10
-5.997849971557105
 20
-0.9686850673448194
 30
0.0
  0
VERTEX
  5
10C05
330
10C03
100
AcDbEntity
  8
Layer 1
 62
     7
370
    18
100
AcDbVertex
100
AcDb2dVertex
 10
-1.531179003032277
 20
-3.548690295190628
 30
0.0
  0
SEQEND
  5
10C06
330
10C03
100
AcDbEntity
  8
Layer 1
370
    18
  0
POLYLINE
  5
10C07
330
E757
100
AcDbEntity
  8
Layer 1
 62
     7
370
    18
100
AcDb2dPolyline
 66
     1
 10
0.0
 20
0.0
 30
0.0
  0
VERTEX
  5
10C08
330
10C07
100
AcDbEntity
  8
Layer 1
 62
     7
370
    18
100
AcDbVertex
100
AcDb2dVertex
 10
-7.264520186196019
 20
-2.235355281983733
 30
0.0
  0
VERTEX
  5
10C09
330
10C07
100
AcDbEntity
  8
Layer 1
 62
     7
370
    18
100
AcDbVertex
100
AcDb2dVertex
 10
-2.801185808413154
 20
-4.815360509829542
 30
0.0
  0
SEQEND
  5
10C0A
330
10C07
100
AcDbEntity
  8
Layer 1
370
    18
  0
POLYLINE
  5
10C0B
330
E757
100
AcDbEntity
  8
Layer 1
 62
     7
370
    18
100
AcDb2dPolyline
 66
     1
 10
0.0
 20
0.0
 30
0.0
  0
VERTEX
  5
10C0C
330
10C0B
100
AcDbEntity
  8
Layer 1
 62
     7
370
    18
100
AcDbVertex
100
AcDb2dVertex
 10
-7.264520186196019
 20
-2.825362181477172
 30
0.0
  0
VERTEX
  5
10C0D
330
10C0B
100
AcDbEntity
  8
Layer 1
 62
     7
370
    18
100
AcDbVertex
100
AcDb2dVertex
 10
-2.801185808413154
 20
-5.402024036892518
 30
0.0
  0
SEQEND
  5
10C0E
330
10C0B
100
AcDbEntity
  8
Layer 1
370
    18
  0
POLYLINE
  5
10C0F
330
E757
100
AcDbEntity
  8
Layer 1
 62
     7
370
    18
100
AcDb2dPolyline
 66
     1
 10
0.0
 20
0.0
 30
0.0
  0
VERTEX
  5
10C10
330
10C0F
100
AcDbEntity
  8
Layer 1
 62
     7
370
    18
100
AcDbVertex
100
AcDb2dVertex
 10
-7.864516512849846
 20
-2.825362181477172
 30
0.0
  0
VERTEX
  5
10C11
330
10C0F
100
AcDbEntity
  8
Layer 1
 62
     7
370
    18
100
AcDbVertex
100
AcDb2dVertex
 10
-3.401188916755481
 20
-5.402024036892518
 30
0.0
  0
SEQEND
  5
10C12
330
10C0F
100
AcDbEntity
  8
Layer 1
370
    18
  0
POLYLINE
  5
10C13
330
E757
100
AcDbEntity
  8
Layer 1
 62
     7
370
    18
100
AcDb2dPolyline
 66
     1
 10
0.0
 20
0.0
 30
0.0
  0
VERTEX
  5
10C14
330
10C13
100
AcDbEntity
  8
Layer 1
 62
     7
370
    18
100
AcDbVertex
100
AcDb2dVertex
 10
-7.864516512849846
 20
-5.07535688353965
 30
0.0
  0
VERTEX
  5
10C15
330
10C13
100
AcDbEntity
  8
Layer 1
 62
     7
370
    18
100
AcDbVertex
100
AcDb2dVertex
 10
-3.401188916755482
 20
-7.652025520643496
 30
0.0
  0
SEQEND
  5
10C16
330
10C13
100
AcDbEntity
  8
Layer 1
370
    18
  0
POLYLINE
  5
10C17
330
E757
100
AcDbEntity
  8
Layer 1
 62
     7
370
    18
100
AcDb2dPolyline
 66
     1
 10
0.0
 20
0.0
 30
0.0
  0
VERTEX
  5
10C18
330
10C17
100
AcDbEntity
  8
Layer 1
 62
     7
370
    18
100
AcDbVertex
100
AcDb2dVertex
 10
0.472158906599443
 20
-2.415354858148731
 30
0.0
  0
VERTEX
  5
10C19
330
10C17
100
AcDbEntity
  8
Layer 1
 62
     7
370
    18
100
AcDbVertex
100
AcDb2dVertex
 10
1.338818006758806
 20
-2.915355187871171
 30
0.0
  0
SEQEND
  5
10C1A
330
10C17
100
AcDbEntity
  8
Layer 1
370
    18
  0
POLYLINE
  5
10C1B
330
E757
100
AcDbEntity
  8
Layer 1
 62
     7
370
    18
100
AcDb2dPolyline
 66
     1
 10
0.0
 20
0.0
 30
0.0
  0
VERTEX
  5
10C1C
330
10C1B
100
AcDbEntity
  8
Layer 1
 62
     7
370
    18
100
AcDbVertex
100
AcDb2dVertex
 10
-2.377845685493862
 20
0.1613069972666136
 30
0.0
  0
VERTEX
  5
10C1D
330
10C1B
100
AcDbEntity
  8
Layer 1
 62
     7
370
    18
100
AcDbVertex
100
AcDb2dVertex
 10
2.088818501342466
 20
-2.415354858148731
 30
0.0
  0
SEQEND
  5
10C1E
330
10C1B
100
AcDbEntity
  8
Layer 1
370
    18
  0
POLYLINE
  5
10C1F
330
E757
100
AcDbEntity
  8
Layer 1
 62
     7
370
    18
100
AcDb2dPolyline
 66
     1
 10
0.0
 20
0.0
 30
0.0
  0
VERTEX
  5
10C20
330
10C1F
100
AcDbEntity
  8
Layer 1
 62
     7
370
    18
100
AcDbVertex
100
AcDb2dVertex
 10
-2.377845685493862
 20
-0.338693332455826
 30
0.0
  0
VERTEX
  5
10C21
330
10C1F
100
AcDbEntity
  8
Layer 1
 62
     7
370
    18
100
AcDbVertex
100
AcDb2dVertex
 10
2.088818501342466
 20
-2.915355187871171
 30
0.0
  0
SEQEND
  5
10C22
330
10C1F
100
AcDbEntity
  8
Layer 1
370
    18
  0
POLYLINE
  5
10C23
330
E757
100
AcDbEntity
  8
Layer 1
 62
     7
370
    18
100
AcDb2dPolyline
 66
     1
 10
0.0
 20
0.0
 30
0.0
  0
VERTEX
  5
10C24
330
10C23
100
AcDbEntity
  8
Layer 1
 62
     7
370
    18
100
AcDbVertex
100
AcDb2dVertex
 10
-0.9345124854319131
 20
-2.915355187871171
 30
0.0
  0
VERTEX
  5
10C25
330
10C23
100
AcDbEntity
  8
Layer 1
 62
     7
370
    18
100
AcDbVertex
100
AcDb2dVertex
 10
-0.9345124854319131
 20
-3.548690295190628
 30
0.0
  0
VERTEX
  5
10C26
330
10C23
100
AcDbEntity
  8
Layer 1
 62
     7
370
    18
100
AcDbVertex
100
AcDb2dVertex
 10
-1.531179003032277
 20
-3.548690295190628
 30
0.0
  0
SEQEND
  5
10C27
330
10C23
100
AcDbEntity
  8
Layer 1
370
    18
  0
POLYLINE
  5
10C28
330
E757
100
AcDbEntity
  8
Layer 1
 62
     7
370
    18
100
AcDb2dPolyline
 66
     1
 10
0.0
 20
0.0
 30
0.0
  0
VERTEX
  5
10C29
330
10C28
100
AcDbEntity
  8
Layer 1
 62
     7
370
    18
100
AcDbVertex
100
AcDb2dVertex
 10
-2.801185808413154
 20
-5.402024036892518
 30
0.0
  0
VERTEX
  5
10C2A
330
10C28
100
AcDbEntity
  8
Layer 1
 62
     7
370
    18
100
AcDbVertex
100
AcDb2dVertex
 10
-2.801185808413154
 20
-4.815360509829542
 30
0.0
  0
VERTEX
  5
10C2B
330
10C28
100
AcDbEntity
  8
Layer 1
 62
     7
370
    18
100
AcDbVertex
100
AcDb2dVertex
 10
-1.531179003032277
 20
-3.548690295190628
 30
0.0
  0
SEQEND
  5
10C2C
330
10C28
100
AcDbEntity
  8
Layer 1
370
    18
  0
POLYLINE
  5
10C2D
330
E757
100
AcDbEntity
  8
Layer 1
 62
     7
370
    18
100
AcDb2dPolyline
 66
     1
 10
0.0
 20
0.0
 30
0.0
  0
VERTEX
  5
10C2E
330
10C2D
100
AcDbEntity
  8
Layer 1
 62
     7
370
    18
100
AcDbVertex
100
AcDb2dVertex
 10
-3.401188916755481
 20
-5.402024036892518
 30
0.0
  0
VERTEX
  5
10C2F
330
10C2D
100
AcDbEntity
  8
Layer 1
 62
     7
370
    18
100
AcDbVertex
100
AcDb2dVertex
 10
-2.801185808413154
 20
-5.402024036892518
 30
0.0
  0
SEQEND
  5
10C30
330
10C2D
100
AcDbEntity
  8
Layer 1
370
    18
  0
POLYLINE
  5
10C31
330
E757
100
AcDbEntity
  8
Layer 1
 62
     7
370
    18
100
AcDb2dPolyline
 66
     1
 10
0.0
 20
0.0
 30
0.0
  0
VERTEX
  5
10C32
330
10C31
100
AcDbEntity
  8
Layer 1
 62
     7
370
    18
100
AcDbVertex
100
AcDb2dVertex
 10
-0.9345124854319131
 20
-2.915355187871171
 30
0.0
  0
VERTEX
  5
10C33
330
10C31
100
AcDbEntity
  8
Layer 1
 62
     7
370
    18
100
AcDbVertex
100
AcDb2dVertex
 10
-0.1545098009245871
 20
-2.915355187871171
 30
0.0
  0
VERTEX
  5
10C34
330
10C31
100
AcDbEntity
  8
Layer 1
 62
     7
370
    18
100
AcDbVertex
100
AcDb2dVertex
 10
-0.1545098009245871
 20
-2.415354858148731
 30
0.0
  0
SEQEND
  5
10C35
330
10C31
100
AcDbEntity
  8
Layer 1
370
    18
  0
POLYLINE
  5
10C36
330
E757
100
AcDbEntity
  8
Layer 1
 62
     7
370
    18
100
AcDb2dPolyline
 66
     1
 10
0.0
 20
0.0
 30
0.0
  0
VERTEX
  5
10C37
330
10C36
100
AcDbEntity
  8
Layer 1
 62
     7
370
    18
100
AcDbVertex
100
AcDb2dVertex
 10
1.338818006758806
 20
-2.915355187871171
 30
0.0
  0
VERTEX
  5
10C38
330
10C36
100
AcDbEntity
  8
Layer 1
 62
     7
370
    18
100
AcDbVertex
100
AcDb2dVertex
 10
2.088818501342466
 20
-2.915355187871171
 30
0.0
  0
VERTEX
  5
10C39
330
10C36
100
AcDbEntity
  8
Layer 1
 62
     7
370
    18
100
AcDbVertex
100
AcDb2dVertex
 10
2.088818501342466
 20
-2.415354858148731
 30
0.0
  0
SEQEND
  5
10C3A
330
10C36
100
AcDbEntity
  8
Layer 1
370
    18
  0
POLYLINE
  5
10C3B
330
E757
100
AcDbEntity
  8
Layer 1
 62
     7
370
    18
100
AcDb2dPolyline
 66
     1
 10
0.0
 20
0.0
 30
0.0
  0
VERTEX
  5
10C3C
330
10C3B
100
AcDbEntity
  8
Layer 1
 62
     7
370
    18
100
AcDbVertex
100
AcDb2dVertex
 10
-3.401188916755482
 20
-7.652025520643496
 30
0.0
  0
VERTEX
  5
10C3D
330
10C3B
100
AcDbEntity
  8
Layer 1
 62
     7
370
    18
100
AcDbVertex
100
AcDb2dVertex
 10
-2.651188422171823
 20
-7.652025520643496
 30
0.0
  0
VERTEX
  5
10C3E
330
10C3B
100
AcDbEntity
  8
Layer 1
 62
     7
370
    18
100
AcDbVertex
100
AcDb2dVertex
 10
-2.651188422171822
 20
-6.902025026059837
 30
0.0
  0
SEQEND
  5
10C3F
330
10C3B
100
AcDbEntity
  8
Layer 1
370
    18
  0
POLYLINE
  5
10C40
330
E757
100
AcDbEntity
  8
Layer 1
 62
     7
370
    18
100
AcDb2dPolyline
 66
     1
 10
0.0
 20
0.0
 30
0.0
  0
VERTEX
  5
10C41
330
10C40
100
AcDbEntity
  8
Layer 1
 62
     7
370
    18
100
AcDbVertex
100
AcDb2dVertex
 10
-0.1545098009245871
 20
-2.415354858148731
 30
0.0
  0
VERTEX
  5
10C42
330
10C40
100
AcDbEntity
  8
Layer 1
 62
     7
370
    18
100
AcDbVertex
100
AcDb2dVertex
 10
0.472158906599443
 20
-2.415354858148731
 30
0.0
  0
SEQEND
  5
10C43
330
10C40
100
AcDbEntity
  8
Layer 1
370
    18
  0
POLYLINE
  5
10C44
330
E757
100
AcDbEntity
  8
Layer 1
 62
     7
370
    18
100
AcDb2dPolyline
 66
     1
 10
0.0
 20
0.0
 30
0.0
  0
VERTEX
  5
10C45
330
10C44
100
AcDbEntity
  8
Layer 1
 62
     7
370
    18
100
AcDbVertex
100
AcDb2dVertex
 10
-3.401188916755481
 20
-5.402024036892518
 30
0.0
  0
VERTEX
  5
10C46
330
10C44
100
AcDbEntity
  8
Layer 1
 62
     7
370
    18
100
AcDbVertex
100
AcDb2dVertex
 10
-3.401188916755481
 20
-6.468695475980156
 30
0.0
  0
SEQEND
  5
10C47
330
10C44
100
AcDbEntity
  8
Layer 1
370
    18
  0
MTEXT
  5
10C48
102
{ACAD_XDICTIONARY
360
10C66
102
}
330
E757
100
AcDbEntity
  8
0
  6
Continuous
370
     0
100
AcDbMText
 10
-5.436362465599877
 20
0.6720110576184766
 30
0.0
 40
0.11
 41
0.5487255275851055
 46
0.0
 71
     1
 72
     5
  1
\pi0.07875;{\fArial|b0|i0|c0|p34;5-1/2"}
 73
     1
 44
1.0
1001
ACAD
1000
ACAD_MTEXT_COLUMN_INFO_BEGIN
1070
    75
1070
     2
1070
    79
1070
     0
1070
    76
1070
     1
1070
    78
1070
     0
1070
    48
1040
0.5487255275851055
1070
    49
1040
0.4650000000000001
1070
    50
1070
     1
1040
0.0868862502853248
1000
ACAD_MTEXT_COLUMN_INFO_END
  0
MTEXT
  5
10C49
330
E757
100
AcDbEntity
  8
0
  6
Continuous
370
     0
100
AcDbMText
 10
-2.303801976295595
 20
-0.2152280387750949
 30
0.0
 40
0.12
 41
0.615202956400502
 46
0.0
 71
     1
 72
     5
  1
{\fArial|b0|i0|c0|p34;KB540}
 73
     1
 44
1.0
1001
ACAD
1000
ACAD_MTEXT_COLUMN_INFO_BEGIN
1070
    75
1070
     2
1070
    79
1070
     0
1070
    76
1070
     1
1070
    78
1070
     0
1070
    48
1040
0.615202956400502
1070
    49
1040
0.4650000000000001
1070
    50
1070
     1
1040
0.0
1000
ACAD_MTEXT_COLUMN_INFO_END
  0
MTEXT
  5
10C4A
330
E757
100
AcDbEntity
  8
0
  6
Continuous
370
     0
100
AcDbMText
 10
-6.493388826942208
 20
-1.636884872431366
 30
0.0
 40
0.12
 41
0.615202956400502
 46
0.0
 71
     1
 72
     5
  1
{\fArial|b0|i0|c0|p34;KB384}
 73
     1
 44
1.0
1001
ACAD
1000
ACAD_MTEXT_COLUMN_INFO_BEGIN
1070
    75
1070
     2
1070
    79
1070
     0
1070
    76
1070
     1
1070
    78
1070
     0
1070
    48
1040
0.615202956400502
1070
    49
1040
0.4650000000000001
1070
    50
1070
     1
1040
0.0
1000
ACAD_MTEXT_COLUMN_INFO_END
  0
MTEXT
  5
10C4B
330
E757
100
AcDbEntity
  8
0
  6
Continuous
370
     0
100
AcDbMText
 10
-7.06720506809286
 20
-4.712287412523835
 30
0.0
 40
0.12
 41
0.615202956400502
 46
0.0
 71
     1
 72
     5
  1
{\fArial|b0|i0|c0|p34;KB545}
 73
     1
 44
1.0
1001
ACAD
1000
ACAD_MTEXT_COLUMN_INFO_BEGIN
1070
    75
1070
     2
1070
    79
1070
     0
1070
    76
1070
     1
1070
    78
1070
     0
1070
    48
1040
0.615202956400502
1070
    49
1040
0.4650000000000001
1070
    50
1070
     1
1040
0.0
1000
ACAD_MTEXT_COLUMN_INFO_END
  0
MTEXT
  5
10C4C
102
{ACAD_XDICTIONARY
360
10C68
102
}
330
E757
100
AcDbEntity
  8
0
  6
Continuous
370
     0
100
AcDbMText
 10
-4.585587929893449
 20
-0.1957129748998554
 30
0.0
 40
0.12
 41
0.6935760810847427
 46
0.0
 71
     1
 72
     5
  1
{\fArial|b0|i0|c0|p34;\T0.9;1/2" X 2"}
 73
     1
 44
1.0
1001
ACAD
1000
ACAD_MTEXT_COLUMN_INFO_BEGIN
1070
    75
1070
     2
1070
    79
1070
     0
1070
    76
1070
     1
1070
    78
1070
     0
1070
    48
1040
0.6935760810847427
1070
    49
1040
0.4650000000000001
1070
    50
1070
     1
1040
0.0
1000
ACAD_MTEXT_COLUMN_INFO_END
  0
MTEXT
  5
10C58
330
E757
100
AcDbEntity
  8
0
  6
Continuous
370
     0
100
AcDbMText
 10
-8.385408988677156
 20
-2.685352389136252
 30
0.0
 40
0.11
 41
0.5487255275851055
 46
0.0
 71
     1
 72
     5
  1
{\fArial|b0|i0|c0|p34;5-1/4"}
 11
0.0000000000000001
 21
1.0
 31
0.0
 73
     1
 44
1.0
1001
ACAD
1000
ACAD_MTEXT_COLUMN_INFO_BEGIN
1070
    75
1070
     2
1070
    79
1070
     0
1070
    76
1070
     1
1070
    78
1070
     0
1070
    48
1040
0.5487255275851055
1070
    49
1040
0.4650000000000001
1070
    50
1070
     1
1040
0.0868862502853248
1000
ACAD_MTEXT_COLUMN_INFO_END
  0
ENDBLK
  5
EBF7
330
E757
100
AcDbEntity
  8
0
370
     0
100
AcDbBlockEnd
  0
ENDSEC
  0
SECTION
  2
ENTITIES
  0
INSERT
  5
F535
330
A
100
AcDbEntity
  8
0
100
AcDbBlockReference
  2
Kuiken Brothers Moulding Contemporary Shaker Style Cornice
 10
3.087554024503425
 20
4.188813882851937
 30
0.0
  0
LWPOLYLINE
  5
FA32
330
A
100
AcDbEntity
  8
DO NOT PLOT
  6
Continuous
370
     0
100
AcDbPolyline
 90
        4
 70
     1
 43
0.0
 10
6.446368721214824
 20
-5.516030663044006
 10
-6.663103192211352
 20
-5.516030663044006
 10
-6.663103192211352
 20
6.395460662450183
 10
6.446368721214824
 20
6.395460662450183
  0
LWPOLYLINE
  5
FA95
330
A
100
AcDbEntity
  8
0
  6
Continuous
370
     0
100
AcDbPolyline
 90
        4
 70
     1
 43
0.0
 10
-6.43677997077988
 20
6.114726908526186
 10
6.21474886228151
 20
6.114726908526186
 10
6.21474886228151
 20
-5.273356580405547
 10
-6.43677997077988
 20
-5.273356580405547
  0
MTEXT
  5
FFAE
102
{ACAD_XDICTIONARY
360
FFAF
102
}
330
A
100
AcDbEntity
  8
0
100
AcDbMText
 10
-1.634781344846213
 20
-3.90972722907016
 30
0.0
 40
0.107
 41
5.063430911255305
 46
0.0
 71
     1
 72
     5
  1
Kuiken Brothers Moulding Contemporary Shaker Style Cornice Combination
  7
DynamicDimensions
 73
     1
 44
1.0
1001
ACAD
1000
ACAD_MTEXT_COLUMN_INFO_BEGIN
1070
    75
1070
     2
1070
    79
1070
     0
1070
    76
1070
     1
1070
    78
1070
     0
1070
    48
1040
5.063430911255305
1070
    49
1040
1.418054127905516
1070
    50
1070
     1
1040
0.0
1000
ACAD_MTEXT_COLUMN_INFO_END
  0
MTEXT
  5
FFB0
102
{ACAD_XDICTIONARY
360
FFB1
102
}
330
A
100
AcDbEntity
  8
0
100
AcDbMText
 10
-1.634781344846213
 20
-4.081006621182567
 30
0.0
 40
0.0709027063952759
 41
5.004076722388059
 46
0.0
 71
     1
 72
     5
  3
\pi2.50204;\P\pi0.04523;CONFIDENTIAL: All material found on this document is the exclusive property of Kuiken Brothers Company, Inc. \P\pi0.26062;This may not be duplicated or replicated in any shape or form without the expressed written consent of \
  1
P\pi0.28894;Kuiken Brothers Company, Inc. It may be used within architectural renders and details and printed for \P\pi0.72239;jobsite reference. These profiles are in-stock and ready to be shipped nationwide. 
  7
DynamicDimensions
 73
     1
 44
1.0
1001
ACAD
1000
ACAD_MTEXT_COLUMN_INFO_BEGIN
1070
    75
1070
     2
1070
    79
1070
     0
1070
    76
1070
     1
1070
    78
1070
     0
1070
    48
1040
5.004076722388059
1070
    49
1040
1.418054127905516
1070
    50
1070
     1
1040
0.6678041853141227
1000
ACAD_MTEXT_COLUMN_INFO_END
  0
MTEXT
  5
FFB2
102
{ACAD_XDICTIONARY
360
FFB3
102
}
330
A
100
AcDbEntity
  8
0
100
AcDbMText
 10
-1.634781344846213
 20
-4.78600351518698
 30
0.0
 40
0.0709027063952759
 41
5.012523456467827
 46
0.0
 71
     1
 72
     5
  1
\pi1.26226;{\H1.3333x;www.kuikenbrothers.com      201.796.2082}
  7
DynamicDimensions
 73
     1
 44
1.0
1001
ACAD
1000
ACAD_MTEXT_COLUMN_INFO_BEGIN
1070
    75
1070
     2
1070
    79
1070
     0
1070
    76
1070
     1
1070
    78
1070
     0
1070
    48
1040
5.012523456467827
1070
    49
1040
1.418054127905516
1070
    50
1070
     1
1040
1.404933148695193
1000
ACAD_MTEXT_COLUMN_INFO_END
  0
OLE2FRAME
  5
FFB4
330
A
100
AcDbEntity
  8
0
  6
Continuous
370
     0
100
AcDbOle2Frame
 70
     2
  1
OLE
1001
ACAD
1000
OLEBEGIN
1070
    70
1070
     1
1070
    71
1070
     1
1070
    40
1040
0.0
1070
    41
1040
1.361781643938302
1070
    42
1040
0.9791390678353053
1070
    72
1070
     0
1070
     3
1000

1070
    90
1071
        0
1070
    43
1040
0.0
1070
     4
1000

1070
    91
1071
        0
1070
    44
1040
0.0
1000
OLEEND
  0
VIEWPORT
  5
BA
330
B
100
AcDbEntity
 67
     1
  8
0
  6
Continuous
370
     0
100
AcDbViewport
 10
0.7071301926757326
 20
4.857615254935732
 30
0.0
 40
16.46307751312688
 41
8.547518448585069
 68
     1
 69
     1
 12
0.7071301926757326
 22
4.857615254935732
 13
0.0
 23
0.0
 14
0.5
 24
0.5
 15
0.5
 25
0.5
 16
0.0
 26
0.0
 36
1.0
 17
0.0
 27
0.0
 37
0.0
 42
50.0
 43
0.0
 44
0.0
 45
8.547518448585069
 50
0.0
 51
0.0
 72
   100
 90
    32800
  1

281
     0
 71
     1
 74
     0
110
0.0
120
0.0
130
0.0
111
1.0
121
0.0
131
0.0
112
0.0
122
1.0
132
0.0
 79
     0
146
0.0
170
     0
 61
     5
348
5FBF
292
     1
282
     1
141
0.0
142
0.0
 63
   250
421
  3355443
  0
VIEWPORT
  5
C4
330
B
100
AcDbEntity
 67
     1
  8
0
  6
Continuous
370
     0
100
AcDbViewport
 10
0.7070518256244604
 20
4.857666792531651
 30
0.0
 40
6.483333107054702
 41
8.483333527572511
 68
     2
 69
     2
 12
-0.1083672741709627
 22
0.5787637431034707
 13
0.0
 23
0.0
 14
1.0
 24
1.0
 15
0.0
 25
0.0
 16
0.0
 26
0.0
 36
15.94862865570031
 17
0.0000000386726986
 27
-0.1390487434003824
 37
0.0
 42
50.0
 43
0.0
 44
0.0
 45
17.35012538276956
 50
0.0
 51
0.0
 72
   100
 90
    32800
  1

281
     0
 71
     1
 74
     0
110
0.0
120
0.0
130
0.0
111
1.0
121
0.0
131
0.0
112
0.0
122
1.0
132
0.0
 79
     0
146
0.0
170
     0
 61
     5
348
5FBF
292
     1
282
     1
141
0.0
142
0.0
 63
   250
421
  3355443
  0
ENDSEC
  0
SECTION
  2
OBJECTS
  0
DICTIONARY
  5
19
330
0
100
AcDbDictionary
281
     1
  3
ACAD_CIP_PREVIOUS_PRODUCT_INFO
350
6667
  3
ACAD_COLOR
350
61
  3
ACAD_DETAILVIEWSTYLE
350
6661
  3
ACAD_GROUP
350
1A
  3
ACAD_IMAGE_DICT
350
6270
  3
ACAD_IMAGE_VARS
350
6272
  3
ACAD_LAYOUT
350
1E
  3
ACAD_MATERIAL
350
60
  3
ACAD_MLEADERSTYLE
350
5FEC
  3
ACAD_MLINESTYLE
350
1B
  3
ACAD_PLOTSETTINGS
350
22
  3
ACAD_PLOTSTYLENAME
350
1F
  3
ACAD_SCALELIST
350
5FCA
  3
ACAD_SECTIONVIEWSTYLE
350
665F
  3
ACAD_TABLESTYLE
350
62
  3
ACAD_VISUALSTYLE
350
5FB9
  3
ACAD_WIPEOUT_VARS
350
23
  3
ACDB_RECOMPOSE_DATA
350
10C6A
  3
AcDbVariableDictionary
350
F57B
  3
AcDsDecomposeData
350
10C70
  3
AEC_PROPERTY_SET_DEFS
350
6217
  0
DICTIONARY
  5
6038
330
7
100
AcDbDictionary
280
     1
281
     1
  0
DICTIONARY
  5
9B
330
2
100
AcDbDictionary
280
     1
281
     1
  3
ACAD_LAYERSTATES
360
9C
  0
DICTIONARY
  5
602E
330
14
100
AcDbDictionary
280
     1
281
     1
  3
ADSK_XREC_LAYER_RECONCILED
360
602F
  0
DICTIONARY
  5
6030
330
24
100
AcDbDictionary
280
     1
281
     1
  3
ADSK_XREC_LAYER_RECONCILED
360
6031
  0
DICTIONARY
  5
6032
330
1BE
100
AcDbDictionary
280
     1
281
     1
  3
ADSK_XREC_LAYER_RECONCILED
360
6033
  0
DICTIONARY
  5
34BB
330
A
100
AcDbDictionary
280
     1
281
     1
  3
ACAD_SORTENTS
360
34BC
  0
DICTIONARY
  5
10C4D
330
E757
100
AcDbDictionary
280
     1
281
     1
  0
DICTIONARY
  5
10C66
330
10C48
100
AcDbDictionary
280
     1
281
     1
  3
ACAD_MTEXT_2008_RT
360
10C67
  0
DICTIONARY
  5
10C68
330
10C4C
100
AcDbDictionary
280
     1
281
     1
  3
ACAD_MTEXT_2008_RT
360
10C69
  0
DICTIONARY
  5
FFAF
330
FFAE
100
AcDbDictionary
280
     1
281
     1
  0
DICTIONARY
  5
FFB1
330
FFB0
100
AcDbDictionary
280
     1
281
     1
  3
ACAD_MTEXT_2008_RT
360
10C64
  0
DICTIONARY
  5
FFB3
330
FFB2
100
AcDbDictionary
280
     1
281
     1
  3
ACAD_MTEXT_2008_RT
360
10C65
  0
XRECORD
  5
6667
102
{ACAD_REACTORS
330
19
102
}
330
19
100
AcDbXrecord
280
     1
300
ACDLT
300
2021
300

  0
DICTIONARY
  5
61
102
{ACAD_REACTORS
330
19
102
}
330
19
100
AcDbDictionary
281
     1
  0
DICTIONARY
  5
6661
102
{ACAD_REACTORS
330
19
102
}
330
19
100
AcDbDictionary
281
     1
  3
Imperial24
350
6662
  0
DICTIONARY
  5
1A
102
{ACAD_REACTORS
330
19
102
}
330
19
100
AcDbDictionary
281
     1
  0
DICTIONARY
  5
6270
102
{ACAD_REACTORS
330
19
102
}
330
19
100
AcDbDictionary
281
     1
  0
RASTERVARIABLES
  5
6272
102
{ACAD_REACTORS
330
19
102
}
330
19
100
AcDbRasterVariables
 90
        0
 70
     1
 71
     1
 72
     0
  0
DICTIONARY
  5
1E
102
{ACAD_REACTORS
330
19
102
}
330
19
100
AcDbDictionary
281
     1
  3
Layout1
350
21
  3
Model
350
20
  0
DICTIONARY
  5
60
102
{ACAD_REACTORS
330
19
102
}
330
19
100
AcDbDictionary
281
     1
  3
ByBlock
350
5FA9
  3
ByLayer
350
5FA1
  3
Global
350
5FB1
  0
DICTIONARY
  5
5FEC
102
{ACAD_REACTORS
330
19
102
}
330
19
100
AcDbDictionary
281
     1
  3
Standard
350
5FED
  0
DICTIONARY
  5
1B
102
{ACAD_REACTORS
330
19
102
}
330
19
100
AcDbDictionary
281
     1
  3
Standard
350
1C
  0
DICTIONARY
  5
22
102
{ACAD_REACTORS
330
19
102
}
330
19
100
AcDbDictionary
281
     1
  0
ACDBDICTIONARYWDFLT
  5
1F
102
{ACAD_REACTORS
330
19
102
}
330
19
100
AcDbDictionary
281
     1
  3
Normal
350
1D
100
AcDbDictionaryWithDefault
340
1D
  0
DICTIONARY
  5
5FCA
102
{ACAD_REACTORS
330
19
102
}
330
19
100
AcDbDictionary
281
     1
  3
A0
350
5FCB
  3
A1
350
5FCC
  3
A2
350
5FCD
  3
A3
350
5FCE
  3
A4
350
5FCF
  3
A5
350
5FD0
  3
A6
350
5FD1
  3
A7
350
5FD2
  3
A8
350
5FD3
  3
A9
350
5FD4
  3
B0
350
5FD5
  3
B1
350
5FD6
  3
B2
350
5FD7
  3
B3
350
5FD8
  3
B4
350
5FD9
  3
B5
350
5FDA
  3
B6
350
5FDB
  3
B7
350
5FDC
  3
B8
350
5FDD
  3
B9
350
5FDE
  3
C0
350
5FDF
  3
C1
350
5FE0
  3
C2
350
5FE1
  3
C3
350
5FE2
  3
C4
350
5FE3
  3
C5
350
5FE4
  3
C6
350
5FE5
  3
C7
350
5FE6
  3
C8
350
5FE7
  3
C9
350
5FE8
  3
D0
350
5FE9
  3
D1
350
5FEA
  3
D2
350
5FEB
  0
DICTIONARY
  5
665F
102
{ACAD_REACTORS
330
19
102
}
330
19
100
AcDbDictionary
281
     1
  3
Imperial24
350
6660
  0
DICTIONARY
  5
62
102
{ACAD_REACTORS
330
19
102
}
330
19
100
AcDbDictionary
281
     1
  3
Standard
350
63
  0
DICTIONARY
  5
5FB9
102
{ACAD_REACTORS
330
19
102
}
330
19
100
AcDbDictionary
281
     1
  3
2dWireframe
350
5FBF
  3
3D Hidden
350
5FC1
  3
3dWireframe
350
5FC0
  3
Basic
350
5FBE
  3
Brighten
350
5FC5
  3
ColorChange
350
5FC9
  3
Conceptual
350
5FC2
  3
Dim
350
5FC4
  3
EdgeColorOff
350
665E
  3
Facepattern
350
5FC8
  3
Flat
350
5FBA
  3
FlatWithEdges
350
5FBB
  3
Gouraud
350
5FBC
  3
GouraudWithEdges
350
5FBD
  3
Hidden
350
6656
  3
JitterOff
350
665C
  3
Linepattern
350
5FC7
  3
OverhangOff
350
665D
  3
Realistic
350
5FC3
  3
Shaded
350
665B
  3
Shaded with edges
350
665A
  3
Shades of Gray
350
6657
  3
Sketchy
350
6658
  3
Thicken
350
5FC6
  3
Wireframe
350
6655
  3
X-Ray
350
6659
  0
WIPEOUTVARIABLES
  5
23
102
{ACAD_REACTORS
330
19
102
}
330
19
100
AcDbWipeoutVariables
 70
     1
  0
XRECORD
  5
10C6A
102
{ACAD_REACTORS
330
19
102
}
330
19
100
AcDbXrecord
280
     1
 90
        1
330
63
330
FFAE
330
FFB0
330
FFB2
330
10C48
330
10C49
330
10C4A
330
10C4B
330
10C4C
330
10C58
  0
DICTIONARY
  5
F57B
102
{ACAD_REACTORS
330
19
102
}
330
19
100
AcDbDictionary
281
     1
  3
CANNOSCALE
350
F580
  3
CMLEADERSTYLE
350
F57D
  3
CTABLESTYLE
350
F57C
  3
CVIEWDETAILSTYLE
350
F57E
  3
CVIEWSECTIONSTYLE
350
F57F
  3
DIMASSOC
350
F583
  3
INDEXCTL
350
F582
  3
LAYEREVAL
350
10832
  3
LAYERNOTIFY
350
10833
  3
LIGHTINGUNITS
350
10831
  3
MSLTSCALE
350
10830
  3
SORTENTS
350
F581
  0
DICTIONARY
  5
10C70
102
{ACAD_REACTORS
330
19
102
}
330
19
100
AcDbDictionary
281
     1
  3
AcDsRecords
350
10C72
  3
AcDsSchemas
350
10C71
1001
ACAD
1070
     2
  0
DICTIONARY
  5
6217
102
{ACAD_REACTORS
330
19
102
}
330
19
100
AcDbDictionary
281
     1
  0
DICTIONARY
  5
9C
102
{ACAD_REACTORS
330
9B
102
}
330
9B
100
AcDbDictionary
281
     1
  0
XRECORD
  5
602F
102
{ACAD_REACTORS
330
602E
102
}
330
602E
100
AcDbXrecord
280
     1
290
     1
  0
XRECORD
  5
6031
102
{ACAD_REACTORS
330
6030
102
}
330
6030
100
AcDbXrecord
280
     1
290
     1
  0
XRECORD
  5
6033
102
{ACAD_REACTORS
330
6032
102
}
330
6032
100
AcDbXrecord
280
     1
290
     1
  0
SORTENTSTABLE
  5
34BC
102
{ACAD_REACTORS
330
34BB
102
}
330
34BB
100
AcDbSortentsTable
330
A
  0
XRECORD
  5
10C67
102
{ACAD_REACTORS
330
10C66
102
}
330
10C66
100
AcDbXrecord
280
     1
 40
62991.0
  1
\pxqc;{\fArial|b0|i0|c0|p34;5-1/2"}
  0
XRECORD
  5
10C69
102
{ACAD_REACTORS
330
10C68
102
}
330
10C68
100
AcDbXrecord
280
     1
 40
49959.0
  1
\pxsm1;{\fArial|b0|i0|c0|p34;\T0.9;1/2" X 2"}
  0
XRECORD
  5
10C64
102
{ACAD_REACTORS
330
FFB1
102
}
330
FFB1
100
AcDbXrecord
280
     1
 40
9640264.0
  1
\pxqd;\PCONFIDENTIAL: All material found on this document is the exclusive property of Kuiken Brothers Company, Inc. This may not be duplicated or replicated in any shape or form without the expressed written consent of \PKuiken Brothers Company, Inc
  1
. It may be used within architectural renders and details and printed for \Pjobsite reference. These profiles are in-stock and ready to be shipped nationwide. 
  0
XRECORD
  5
10C65
102
{ACAD_REACTORS
330
FFB3
102
}
330
FFB3
100
AcDbXrecord
280
     1
 40
144299.0
  1
\pxi0.11111,qd;{\H1.3333x;www.kuikenbrothers.com      201.796.2082}
  0
ACDBDETAILVIEWSTYLE
  5
6662
102
{ACAD_XDICTIONARY
360
10C75
102
}
102
{ACAD_REACTORS
330
6661
102
}
330
6661
100
AcDbModelDocViewStyle
 70
     0
  3
Imperial24
290
     0
100
AcDbDetailViewStyle
 70
     0
 71
     0
 90
        3
 71
     1
340
17
 62
   256
 40
0.24
340
0
 62
   256
 40
0.24
300

 40
0.36
280
     3
 71
     2
340
13
 90
       25
 62
   256
 71
     3
340
17
 62
   256
 40
0.24
 90
        1
 40
0.75
 90
        1
300
%<\AcVar ViewType \f "%tc1">% %<\AcVar ViewDetailId>%\PSCALE %<\AcVar ViewScale \f "%sn">%
 71
     4
340
13
 90
       25
 62
   256
340
13
 90
       25
 62
   256
280
     0
  0
LAYOUT
  5
21
102
{ACAD_XDICTIONARY
360
F2
102
}
102
{ACAD_REACTORS
330
1E
102
}
330
1E
100
AcDbPlotSettings
  1

  2
Microsoft Office Document Image Writer
  4
Letter
  6

 40
3.174999952316281
 41
3.174999952316281
 42
3.175003051757812
 43
3.17498779296875
 44
215.8999938964844
 45
279.3999938964844
 46
0.0
 47
0.0
 48
-2.53461472790289
 49
0.6160000287453951
140
3.948718379151808
141
9.099333556317906
142
1.0
143
1.0
 70
     0
 72
     0
 73
     0
 74
     4
  7

 75
     0
147
1.0
 76
     0
 77
     2
 78
   300
148
64.37921408873342
149
-15.64640073013303
100
AcDbLayout
  1
Layout1
 70
     0
 71
     1
 10
-2.659614726025578
 20
0.4910000306227066
 11
5.840385033678527
 21
11.49099979032681
 12
0.0
 22
0.0
 32
0.0
 14
-2.534713891749436
 24
0.61571013666277
 34
-0.0015258207003583
 15
3.948974277100901
 25
9.099520373208697
 35
0.0000000349246037
146
0.0
 13
0.0
 23
0.0
 33
0.0
 16
1.0
 26
0.0
 36
0.0
 17
0.0
 27
1.0
 37
0.0
 76
     0
330
B
331
BA
1001
ACAD_PSEXT
1000
Microsoft Office Document Image Writer
1000
Microsoft Office Document Image Writer Driver
1000
Microsoft Document Imaging Writer Port:
1000

1070
     0
  0
LAYOUT
  5
20
102
{ACAD_XDICTIONARY
360
668A
102
}
102
{ACAD_REACTORS
330
1E
102
}
330
1E
100
AcDbPlotSettings
  1

  2
none_device
  4
Letter_(8.50_x_11.00_Inches)
  6

 40
6.349999904632567
 41
6.349999904632567
 42
6.350006103515625
 43
6.350006103515625
 44
215.8999938964844
 45
279.3999938964844
 46
0.0
 47
1.778
 48
-4.250133132522924
 49
-5.500183207288167
140
4.249866867477075
141
5.499816792711832
142
1.0
143
1.062500063329939
 70
 14356
 72
     0
 73
     0
 74
     4
  7

 75
     0
147
0.9411764144897459
 76
     0
 77
     2
 78
   300
148
107.9533815660822
149
139.7046534651194
100
AcDbLayout
  1
Model
 70
     0
 71
     0
 10
0.0
 20
0.0
 11
0.0
 21
0.0
 12
0.0
 22
0.0
 32
0.0
 14
0.0
 24
0.0
 34
0.0
 15
0.0
 25
0.0
 35
0.0
146
0.0
 13
0.0
 23
0.0
 33
0.0
 16
0.0
 26
0.0
 36
0.0
 17
0.0
 27
0.0
 37
0.0
 76
     0
330
A
331
5F93
1001
ACAD_PSEXT
1000
hp LaserJet 3380 PCL 6
1000
hp LaserJet 3380 PCL 6
1000
DOT4_001
1000

1070
     0
  0
MATERIAL
  5
5FA9
102
{ACAD_XDICTIONARY
360
5FAA
102
}
102
{ACAD_REACTORS
330
60
102
}
330
60
100
AcDbMaterial
  1
ByBlock
 72
     0
 43
0.0208333333333333
 43
0.0
 43
0.0
 43
0.0
 43
0.0
 43
0.0208333333333333
 43
0.0
 43
0.0
 43
0.0
 43
0.0
 43
1.0
 43
0.0
 43
0.0
 43
0.0
 43
0.0
 43
1.0
 77
     0
 47
0.0208333333333333
 47
0.0
 47
0.0
 47
0.0
 47
0.0
 47
0.0208333333333333
 47
0.0
 47
0.0
 47
0.0
 47
0.0
 47
1.0
 47
0.0
 47
0.0
 47
0.0
 47
0.0
 47
1.0
171
     0
 49
0.0208333333333333
 49
0.0
 49
0.0
 49
0.0
 49
0.0
 49
0.0208333333333333
 49
0.0
 49
0.0
 49
0.0
 49
0.0
 49
1.0
 49
0.0
 49
0.0
 49
0.0
 49
0.0
 49
1.0
175
     0
142
0.0208333333333333
142
0.0
142
0.0
142
0.0
142
0.0
142
0.0208333333333333
142
0.0
142
0.0
142
0.0
142
0.0
142
1.0
142
0.0
142
0.0
142
0.0
142
0.0
142
1.0
179
     0
144
0.0208333333333333
144
0.0
144
0.0
144
0.0
144
0.0
144
0.0208333333333333
144
0.0
144
0.0
144
0.0
144
0.0
144
1.0
144
0.0
144
0.0
144
0.0
144
0.0
144
1.0
147
0.0208333333333333
147
0.0
147
0.0
147
0.0
147
0.0
147
0.0208333333333333
147
0.0
147
0.0
147
0.0
147
0.0
147
1.0
147
0.0
147
0.0
147
0.0
147
0.0
147
1.0
  0
MATERIAL
  5
5FA1
102
{ACAD_XDICTIONARY
360
5FA2
102
}
102
{ACAD_REACTORS
330
60
102
}
330
60
100
AcDbMaterial
  1
ByLayer
 72
     0
 43
0.0208333333333333
 43
0.0
 43
0.0
 43
0.0
 43
0.0
 43
0.0208333333333333
 43
0.0
 43
0.0
 43
0.0
 43
0.0
 43
1.0
 43
0.0
 43
0.0
 43
0.0
 43
0.0
 43
1.0
 77
     0
 47
0.0208333333333333
 47
0.0
 47
0.0
 47
0.0
 47
0.0
 47
0.0208333333333333
 47
0.0
 47
0.0
 47
0.0
 47
0.0
 47
1.0
 47
0.0
 47
0.0
 47
0.0
 47
0.0
 47
1.0
171
     0
 49
0.0208333333333333
 49
0.0
 49
0.0
 49
0.0
 49
0.0
 49
0.0208333333333333
 49
0.0
 49
0.0
 49
0.0
 49
0.0
 49
1.0
 49
0.0
 49
0.0
 49
0.0
 49
0.0
 49
1.0
175
     0
142
0.0208333333333333
142
0.0
142
0.0
142
0.0
142
0.0
142
0.0208333333333333
142
0.0
142
0.0
142
0.0
142
0.0
142
1.0
142
0.0
142
0.0
142
0.0
142
0.0
142
1.0
179
     0
144
0.0208333333333333
144
0.0
144
0.0
144
0.0
144
0.0
144
0.0208333333333333
144
0.0
144
0.0
144
0.0
144
0.0
144
1.0
144
0.0
144
0.0
144
0.0
144
0.0
144
1.0
147
0.0208333333333333
147
0.0
147
0.0
147
0.0
147
0.0
147
0.0208333333333333
147
0.0
147
0.0
147
0.0
147
0.0
147
1.0
147
0.0
147
0.0
147
0.0
147
0.0
147
1.0
  0
MATERIAL
  5
5FB1
102
{ACAD_XDICTIONARY
360
5FB2
102
}
102
{ACAD_REACTORS
330
60
102
}
330
60
100
AcDbMaterial
  1
Global
 72
     0
 43
0.0208333333333333
 43
0.0
 43
0.0
 43
0.0
 43
0.0
 43
0.0208333333333333
 43
0.0
 43
0.0
 43
0.0
 43
0.0
 43
1.0
 43
0.0
 43
0.0
 43
0.0
 43
0.0
 43
1.0
 77
     0
 47
0.0208333333333333
 47
0.0
 47
0.0
 47
0.0
 47
0.0
 47
0.0208333333333333
 47
0.0
 47
0.0
 47
0.0
 47
0.0
 47
1.0
 47
0.0
 47
0.0
 47
0.0
 47
0.0
 47
1.0
171
     0
 49
0.0208333333333333
 49
0.0
 49
0.0
 49
0.0
 49
0.0
 49
0.0208333333333333
 49
0.0
 49
0.0
 49
0.0
 49
0.0
 49
1.0
 49
0.0
 49
0.0
 49
0.0
 49
0.0
 49
1.0
175
     0
142
0.0208333333333333
142
0.0
142
0.0
142
0.0
142
0.0
142
0.0208333333333333
142
0.0
142
0.0
142
0.0
142
0.0
142
1.0
142
0.0
142
0.0
142
0.0
142
0.0
142
1.0
179
     0
144
0.0208333333333333
144
0.0
144
0.0
144
0.0
144
0.0
144
0.0208333333333333
144
0.0
144
0.0
144
0.0
144
0.0
144
1.0
144
0.0
144
0.0
144
0.0
144
0.0
144
1.0
147
0.0208333333333333
147
0.0
147
0.0
147
0.0
147
0.0
147
0.0208333333333333
147
0.0
147
0.0
147
0.0
147
0.0
147
1.0
147
0.0
147
0.0
147
0.0
147
0.0
147
1.0
  0
MLEADERSTYLE
  5
5FED
102
{ACAD_REACTORS
330
5FEC
102
}
330
5FEC
100
AcDbMLeaderStyle
179
     2
170
     2
171
     1
172
     0
 90
        2
 40
0.0
 41
0.0
173
     1
 91
-1056964608
340
11
 92
       -2
290
     1
 42
0.09
291
     1
 43
0.36
  3
Standard
 44
0.18
300

342
17
174
     1
178
     6
175
     1
176
     0
 93
-1056964608
 45
0.18
292
     0
297
     0
 46
0.18
 94
-1056964608
 47
1.0
 49
1.0
140
1.0
293
     1
141
0.0
294
     1
177
     0
142
1.0
295
     0
296
     0
143
0.125
271
     0
272
     9
273
     9
298
     0
  0
MLINESTYLE
  5
1C
102
{ACAD_REACTORS
330
1B
102
}
330
1B
100
AcDbMlineStyle
  2
STANDARD
 70
     0
  3

 62
     0
 51
90.00000000000019
 52
90.00000000000019
 71
     2
 49
0.5
 62
   256
  6
BYLAYER
 49
-0.5
 62
   256
  6
BYLAYER
  0
ACDBPLACEHOLDER
  5
1D
102
{ACAD_REACTORS
330
1F
102
}
330
1F
  0
SCALE
  5
5FCB
102
{ACAD_REACTORS
330
5FCA
102
}
330
5FCA
100
AcDbScale
 70
     0
300
1:1
140
1.0
141
1.0
290
     1
  0
SCALE
  5
5FCC
102
{ACAD_REACTORS
330
5FCA
102
}
330
5FCA
100
AcDbScale
 70
     0
300
1:2
140
1.0
141
2.0
290
     0
  0
SCALE
  5
5FCD
102
{ACAD_REACTORS
330
5FCA
102
}
330
5FCA
100
AcDbScale
 70
     0
300
1:4
140
1.0
141
4.0
290
     0
  0
SCALE
  5
5FCE
102
{ACAD_REACTORS
330
5FCA
102
}
330
5FCA
100
AcDbScale
 70
     0
300
1:5
140
1.0
141
5.0
290
     0
  0
SCALE
  5
5FCF
102
{ACAD_REACTORS
330
5FCA
102
}
330
5FCA
100
AcDbScale
 70
     0
300
1:8
140
1.0
141
8.0
290
     0
  0
SCALE
  5
5FD0
102
{ACAD_REACTORS
330
5FCA
102
}
330
5FCA
100
AcDbScale
 70
     0
300
1:10
140
1.0
141
10.0
290
     0
  0
SCALE
  5
5FD1
102
{ACAD_REACTORS
330
5FCA
102
}
330
5FCA
100
AcDbScale
 70
     0
300
1:16
140
1.0
141
16.0
290
     0
  0
SCALE
  5
5FD2
102
{ACAD_REACTORS
330
5FCA
102
}
330
5FCA
100
AcDbScale
 70
     0
300
1:20
140
1.0
141
20.0
290
     0
  0
SCALE
  5
5FD3
102
{ACAD_REACTORS
330
5FCA
102
}
330
5FCA
100
AcDbScale
 70
     0
300
1:30
140
1.0
141
30.0
290
     0
  0
SCALE
  5
5FD4
102
{ACAD_REACTORS
330
5FCA
102
}
330
5FCA
100
AcDbScale
 70
     0
300
1:40
140
1.0
141
40.0
290
     0
  0
SCALE
  5
5FD5
102
{ACAD_REACTORS
330
5FCA
102
}
330
5FCA
100
AcDbScale
 70
     0
300
1:50
140
1.0
141
50.0
290
     0
  0
SCALE
  5
5FD6
102
{ACAD_REACTORS
330
5FCA
102
}
330
5FCA
100
AcDbScale
 70
     0
300
1:100
140
1.0
141
100.0
290
     0
  0
SCALE
  5
5FD7
102
{ACAD_REACTORS
330
5FCA
102
}
330
5FCA
100
AcDbScale
 70
     0
300
2:1
140
2.0
141
1.0
290
     0
  0
SCALE
  5
5FD8
102
{ACAD_REACTORS
330
5FCA
102
}
330
5FCA
100
AcDbScale
 70
     0
300
4:1
140
4.0
141
1.0
290
     0
  0
SCALE
  5
5FD9
102
{ACAD_REACTORS
330
5FCA
102
}
330
5FCA
100
AcDbScale
 70
     0
300
8:1
140
8.0
141
1.0
290
     0
  0
SCALE
  5
5FDA
102
{ACAD_REACTORS
330
5FCA
102
}
330
5FCA
100
AcDbScale
 70
     0
300
10:1
140
10.0
141
1.0
290
     0
  0
SCALE
  5
5FDB
102
{ACAD_REACTORS
330
5FCA
102
}
330
5FCA
100
AcDbScale
 70
     0
300
100:1
140
100.0
141
1.0
290
     0
  0
SCALE
  5
5FDC
102
{ACAD_REACTORS
330
5FCA
102
}
330
5FCA
100
AcDbScale
 70
     0
300
1/128" = 1'-0"
140
0.0078125
141
12.0
290
     0
  0
SCALE
  5
5FDD
102
{ACAD_REACTORS
330
5FCA
102
}
330
5FCA
100
AcDbScale
 70
     0
300
1/64" = 1'-0"
140
0.015625
141
12.0
290
     0
  0
SCALE
  5
5FDE
102
{ACAD_REACTORS
330
5FCA
102
}
330
5FCA
100
AcDbScale
 70
     0
300
1/32" = 1'-0"
140
0.03125
141
12.0
290
     0
  0
SCALE
  5
5FDF
102
{ACAD_REACTORS
330
5FCA
102
}
330
5FCA
100
AcDbScale
 70
     0
300
1/16" = 1'-0"
140
0.0625
141
12.0
290
     0
  0
SCALE
  5
5FE0
102
{ACAD_REACTORS
330
5FCA
102
}
330
5FCA
100
AcDbScale
 70
     0
300
3/32" = 1'-0"
140
0.09375
141
12.0
290
     0
  0
SCALE
  5
5FE1
102
{ACAD_REACTORS
330
5FCA
102
}
330
5FCA
100
AcDbScale
 70
     0
300
1/8" = 1'-0"
140
0.125
141
12.0
290
     0
  0
SCALE
  5
5FE2
102
{ACAD_REACTORS
330
5FCA
102
}
330
5FCA
100
AcDbScale
 70
     0
300
3/16" = 1'-0"
140
0.1875
141
12.0
290
     0
  0
SCALE
  5
5FE3
102
{ACAD_REACTORS
330
5FCA
102
}
330
5FCA
100
AcDbScale
 70
     0
300
1/4" = 1'-0"
140
0.25
141
12.0
290
     0
  0
SCALE
  5
5FE4
102
{ACAD_REACTORS
330
5FCA
102
}
330
5FCA
100
AcDbScale
 70
     0
300
3/8" = 1'-0"
140
0.375
141
12.0
290
     0
  0
SCALE
  5
5FE5
102
{ACAD_REACTORS
330
5FCA
102
}
330
5FCA
100
AcDbScale
 70
     0
300
1/2" = 1'-0"
140
0.5
141
12.0
290
     0
  0
SCALE
  5
5FE6
102
{ACAD_REACTORS
330
5FCA
102
}
330
5FCA
100
AcDbScale
 70
     0
300
3/4" = 1'-0"
140
0.75
141
12.0
290
     0
  0
SCALE
  5
5FE7
102
{ACAD_REACTORS
330
5FCA
102
}
330
5FCA
100
AcDbScale
 70
     0
300
1" = 1'-0"
140
1.0
141
12.0
290
     0
  0
SCALE
  5
5FE8
102
{ACAD_REACTORS
330
5FCA
102
}
330
5FCA
100
AcDbScale
 70
     0
300
1-1/2" = 1'-0"
140
1.5
141
12.0
290
     0
  0
SCALE
  5
5FE9
102
{ACAD_REACTORS
330
5FCA
102
}
330
5FCA
100
AcDbScale
 70
     0
300
3" = 1'-0"
140
3.0
141
12.0
290
     0
  0
SCALE
  5
5FEA
102
{ACAD_REACTORS
330
5FCA
102
}
330
5FCA
100
AcDbScale
 70
     0
300
6" = 1'-0"
140
6.0
141
12.0
290
     0
  0
SCALE
  5
5FEB
102
{ACAD_REACTORS
330
5FCA
102
}
330
5FCA
100
AcDbScale
 70
     0
300
1'-0" = 1'-0"
140
12.0
141
12.0
290
     0
  0
ACDBSECTIONVIEWSTYLE
  5
6660
102
{ACAD_XDICTIONARY
360
10C73
102
}
102
{ACAD_REACTORS
330
665F
102
}
330
665F
100
AcDbModelDocViewStyle
 70
     0
  3
Imperial24
290
     0
100
AcDbSectionViewStyle
 70
     0
 71
     0
 90
       78
 71
     1
340
17
 62
   256
 40
0.24
340
0
340
0
 62
   256
 40
0.24
300
I, O, Q, S, X, Z
 40
0.48
 90
        3
 40
0.18
 90
        1
 71
     2
340
13
 90
       25
 62
   256
340
13
 90
       50
 62
   256
 40
0.24
 40
0.0
 40
0.24
 71
     3
340
17
 62
   256
 40
0.24
 90
        1
 40
0.75
 90
        1
300
%<\AcVar ViewType \f "%tc1">% %<\AcVar ViewSectionStartId>%-%<\AcVar ViewSectionEndId>%\PSCALE %<\AcVar ViewScale \f "%sn">%
 71
     4
 62
   256
 62
   257
300
ANSI31
 40
1.0
 90
        0
290
     0
290
     0
 90
        6
 40
0.0
 40
1.570796326794896
 40
0.2617993877991494
 40
1.308996938995747
 40
-0.2617993877991494
 40
1.832595714594044
  0
TABLESTYLE
  5
63
102
{ACAD_XDICTIONARY
360
6034
102
}
102
{ACAD_REACTORS
330
62
102
}
330
62
100
AcDbTableStyle
280
     0
  3
Standard
 70
     0
 71
     0
 40
0.06
 41
0.06
280
     0
281
     0
  7
Standard
140
0.18
170
     2
 62
     0
 63
     7
283
     0
 90
        4
 91
        0
  1

274
    -2
284
     1
 64
     0
275
    -2
285
     1
 65
     0
276
    -2
286
     1
 66
     0
277
    -2
287
     1
 67
     0
278
    -2
288
     1
 68
     0
279
    -2
289
     1
 69
     0
  7
Standard
140
0.25
170
     5
 62
     0
 63
     7
283
     0
 90
        4
 91
        0
  1

274
    -2
284
     1
 64
     0
275
    -2
285
     1
 65
     0
276
    -2
286
     1
 66
     0
277
    -2
287
     1
 67
     0
278
    -2
288
     1
 68
     0
279
    -2
289
     1
 69
     0
  7
Standard
140
0.18
170
     5
 62
     0
 63
     7
283
     0
 90
        4
 91
        0
  1

274
    -2
284
     1
 64
     0
275
    -2
285
     1
 65
     0
276
    -2
286
     1
 66
     0
277
    -2
287
     1
 67
     0
278
    -2
288
     1
 68
     0
279
    -2
289
     1
 69
     0
1001
ACAD
1000
AcRTDxfName
1000
TABLESTYLE
  0
VISUALSTYLE
  5
5FBF
102
{ACAD_REACTORS
330
5FB9
102
}
330
5FB9
100
AcDbVisualStyle
  2

 70
     4
177
     3
291
     0
 70
    58
 90
        0
176
     1
 90
        2
176
     1
 90
        0
176
     1
 90
        0
176
     1
 40
0.6
176
     1
 40
30.0
176
     1
 62
     7
176
     1
 90
        1
176
     1
 90
        4
176
     1
 62
     7
176
     1
 62
   257
176
     1
 90
        1
176
     1
 90
        1
176
     1
 40
1.0
176
     1
 90
        0
176
     1
 62
   257
176
     1
 40
1.0
176
     1
 90
        1
176
     1
 90
        6
176
     1
 90
        2
176
     1
 62
     7
176
     1
 90
        5
176
     1
 90
        0
176
     1
 90
        0
176
     1
290
     0
176
     1
 90
        1
176
     1
 40
0.0
176
     1
 90
        0
176
     1
290
     1
176
     1
290
     1
176
     1
290
     0
176
     1
290
     0
176
     1
290
     0
176
     1
290
     0
176
     1
290
     0
176
     1
290
     0
176
     1
290
     0
176
     1
 90
       50
176
     1
 40
0.0
176
     1
 40
1.0
176
     1
 90
        0
176
     1
 62
    18
420
        0
176
     1
 90
       50
176
     1
 90
        3
176
     1
 62
     5
420
      255
176
     1
290
     0
176
     1
 90
       50
176
     1
 90
       50
176
     1
 90
       50
176
     1
290
     0
176
     1
 90
       50
176
     1
 62
   256
176
     0
 40
1.0
176
     0
 90
        2
176
     1
  1
strokes_ogs.tif
176
     1
290
     0
176
     1
 40
1.0
176
     1
 40
1.0
176
     1
1001
ACAD
1000
AcDbSavedByObjectVersion
1070
     0
  0
VISUALSTYLE
  5
5FC1
102
{ACAD_REACTORS
330
5FB9
102
}
330
5FB9
100
AcDbVisualStyle
  2

 70
     6
177
     3
291
     0
 70
    58
 90
        1
176
     1
 90
        2
176
     1
 90
        2
176
     1
 90
        0
176
     1
 40
0.6
176
     1
 40
30.0
176
     1
 62
     7
176
     1
 90
        2
176
     1
 90
        2
176
     1
 62
     7
176
     1
 62
   257
176
     1
 90
        2
176
     1
 90
        1
176
     1
 40
40.0
176
     1
 90
        0
176
     1
 62
   257
176
     1
 40
1.0
176
     1
 90
        1
176
     1
 90
        6
176
     1
 90
        2
176
     1
 62
     7
176
     1
 90
        3
176
     1
 90
        0
176
     1
 90
        0
176
     1
290
     0
176
     1
 90
        1
176
     1
 40
0.0
176
     1
 90
        0
176
     1
290
     0
176
     1
290
     1
176
     1
290
     1
176
     1
290
     0
176
     1
290
     0
176
     1
290
     0
176
     1
290
     0
176
     1
290
     0
176
     1
290
     0
176
     1
 90
       50
176
     1
 40
0.0
176
     1
 40
1.0
176
     1
 90
        0
176
     1
 62
    18
420
        0
176
     1
 90
       50
176
     1
 90
        3
176
     1
 62
     5
420
      255
176
     1
290
     0
176
     1
 90
       50
176
     1
 90
       50
176
     1
 90
       50
176
     1
290
     0
176
     1
 90
       50
176
     1
 62
   256
176
     0
 40
1.0
176
     0
 90
        2
176
     1
  1
strokes_ogs.tif
176
     1
290
     0
176
     1
 40
1.0
176
     1
 40
1.0
176
     1
1001
ACAD
1000
AcDbSavedByObjectVersion
1070
     0
  0
VISUALSTYLE
  5
5FC0
102
{ACAD_REACTORS
330
5FB9
102
}
330
5FB9
100
AcDbVisualStyle
  2

 70
     5
177
     3
291
     0
 70
    58
 90
        0
176
     1
 90
        2
176
     1
 90
        0
176
     1
 90
        0
176
     1
 40
0.6
176
     1
 40
30.0
176
     1
 62
     7
176
     1
 90
        1
176
     1
 90
        4
176
     1
 62
     7
176
     1
 62
   257
176
     1
 90
        1
176
     1
 90
        1
176
     1
 40
1.0
176
     1
 90
        0
176
     1
 62
   257
176
     1
 40
1.0
176
     1
 90
        1
176
     1
 90
        6
176
     1
 90
        2
176
     1
 62
     7
176
     1
 90
        5
176
     1
 90
        0
176
     1
 90
        0
176
     1
290
     0
176
     1
 90
        1
176
     1
 40
0.0
176
     1
 90
        0
176
     1
290
     0
176
     1
290
     1
176
     1
290
     1
176
     1
290
     0
176
     1
290
     0
176
     1
290
     0
176
     1
290
     0
176
     1
290
     0
176
     1
290
     0
176
     1
 90
       50
176
     1
 40
0.0
176
     1
 40
1.0
176
     1
 90
        0
176
     1
 62
    18
420
        0
176
     1
 90
       50
176
     1
 90
        3
176
     1
 62
     5
420
      255
176
     1
290
     0
176
     1
 90
       50
176
     1
 90
       50
176
     1
 90
       50
176
     1
290
     0
176
     1
 90
       50
176
     1
 62
   256
176
     0
 40
1.0
176
     0
 90
        2
176
     1
  1
strokes_ogs.tif
176
     1
290
     0
176
     1
 40
1.0
176
     1
 40
1.0
176
     1
1001
ACAD
1000
AcDbSavedByObjectVersion
1070
     0
  0
VISUALSTYLE
  5
5FBE
102
{ACAD_REACTORS
330
5FB9
102
}
330
5FB9
100
AcDbVisualStyle
  2

 70
     7
177
     3
291
     1
 70
    58
 90
        1
176
     1
 90
        0
176
     1
 90
        1
176
     1
 90
        0
176
     1
 40
0.6
176
     1
 40
30.0
176
     1
 62
     7
176
     1
 90
        0
176
     1
 90
        4
176
     1
 62
     7
176
     1
 62
   257
176
     1
 90
        1
176
     1
 90
        1
176
     1
 40
1.0
176
     1
 90
        8
176
     1
 62
     7
176
     1
 40
1.0
176
     1
 90
        1
176
     1
 90
        6
176
     1
 90
        2
176
     1
 62
     7
176
     1
 90
        5
176
     1
 90
        0
176
     1
 90
        0
176
     1
290
     0
176
     1
 90
        1
176
     1
 40
0.0
176
     1
 90
        0
176
     1
290
     0
176
     1
290
     1
176
     1
290
     1
176
     1
290
     0
176
     1
290
     0
176
     1
290
     0
176
     1
290
     0
176
     1
290
     0
176
     1
290
     0
176
     1
 90
       50
176
     1
 40
0.0
176
     1
 40
1.0
176
     1
 90
        0
176
     1
 62
    18
420
        0
176
     1
 90
       50
176
     1
 90
        3
176
     1
 62
     5
420
      255
176
     1
290
     0
176
     1
 90
       50
176
     1
 90
       50
176
     1
 90
       50
176
     1
290
     0
176
     1
 90
       50
176
     1
 62
   256
176
     0
 40
1.0
176
     0
 90
        2
176
     1
  1
strokes_ogs.tif
176
     1
290
     0
176
     1
 40
1.0
176
     1
 40
1.0
176
     1
1001
ACAD
1000
AcDbSavedByObjectVersion
1070
     0
  0
VISUALSTYLE
  5
5FC5
102
{ACAD_REACTORS
330
5FB9
102
}
330
5FB9
100
AcDbVisualStyle
  2

 70
    12
177
     3
291
     1
 70
    58
 90
        2
176
     1
 90
        2
176
     1
 90
        0
176
     1
 90
        0
176
     1
 40
0.6
176
     1
 40
30.0
176
     1
 62
     7
176
     1
 90
        1
176
     1
 90
        4
176
     1
 62
     7
176
     1
 62
   257
176
     1
 90
        1
176
     1
 90
        1
176
     1
 40
1.0
176
     1
 90
        8
176
     1
 62
     7
176
     1
 40
1.0
176
     1
 90
        1
176
     1
 90
        6
176
     1
 90
        2
176
     1
 62
     7
176
     1
 90
        5
176
     1
 90
        0
176
     1
 90
        0
176
     1
290
     0
176
     1
 90
        1
176
     1
 40
50.0
176
     1
 90
        0
176
     1
290
     0
176
     1
290
     1
176
     1
290
     1
176
     1
290
     0
176
     1
290
     0
176
     1
290
     0
176
     1
290
     0
176
     1
290
     0
176
     1
290
     0
176
     1
 90
       50
176
     1
 40
0.0
176
     1
 40
1.0
176
     1
 90
        0
176
     1
 62
    18
420
        0
176
     1
 90
       50
176
     1
 90
        3
176
     1
 62
     5
420
      255
176
     1
290
     0
176
     1
 90
       50
176
     1
 90
       50
176
     1
 90
       50
176
     1
290
     0
176
     1
 90
       50
176
     1
 62
   256
176
     0
 40
1.0
176
     0
 90
        2
176
     1
  1
strokes_ogs.tif
176
     1
290
     0
176
     1
 40
1.0
176
     1
 40
1.0
176
     1
1001
ACAD
1000
AcDbSavedByObjectVersion
1070
     0
  0
VISUALSTYLE
  5
5FC9
102
{ACAD_REACTORS
330
5FB9
102
}
330
5FB9
100
AcDbVisualStyle
  2

 70
    16
177
     3
291
     1
 70
    58
 90
        2
176
     1
 90
        2
176
     1
 90
        3
176
     1
 90
        0
176
     1
 40
0.6
176
     1
 40
30.0
176
     1
 62
     8
176
     1
 90
        1
176
     1
 90
        4
176
     1
 62
     7
176
     1
 62
   257
176
     1
 90
        1
176
     1
 90
        1
176
     1
 40
1.0
176
     1
 90
        8
176
     1
 62
     8
176
     1
 40
1.0
176
     1
 90
        1
176
     1
 90
        6
176
     1
 90
        2
176
     1
 62
     7
176
     1
 90
        5
176
     1
 90
        0
176
     1
 90
        0
176
     1
290
     0
176
     1
 90
        1
176
     1
 40
0.0
176
     1
 90
        0
176
     1
290
     0
176
     1
290
     1
176
     1
290
     1
176
     1
290
     0
176
     1
290
     0
176
     1
290
     0
176
     1
290
     0
176
     1
290
     0
176
     1
290
     0
176
     1
 90
       50
176
     1
 40
0.0
176
     1
 40
1.0
176
     1
 90
        0
176
     1
 62
    18
420
        0
176
     1
 90
       50
176
     1
 90
        3
176
     1
 62
     5
420
      255
176
     1
290
     0
176
     1
 90
       50
176
     1
 90
       50
176
     1
 90
       50
176
     1
290
     0
176
     1
 90
       50
176
     1
 62
   256
176
     0
 40
1.0
176
     0
 90
        2
176
     1
  1
strokes_ogs.tif
176
     1
290
     0
176
     1
 40
1.0
176
     1
 40
1.0
176
     1
1001
ACAD
1000
AcDbSavedByObjectVersion
1070
     0
  0
VISUALSTYLE
  5
5FC2
102
{ACAD_REACTORS
330
5FB9
102
}
330
5FB9
100
AcDbVisualStyle
  2

 70
     9
177
     3
291
     0
 70
    58
 90
        3
176
     1
 90
        2
176
     1
 90
        0
176
     1
 90
        0
176
     1
 40
0.6
176
     1
 40
30.0
176
     1
 62
     7
176
     1
 90
        2
176
     1
 90
        2
176
     1
 62
     7
176
     1
 62
   257
176
     1
 90
        1
176
     1
 90
        1
176
     1
 40
40.0
176
     1
 90
        8
176
     1
 62
     7
176
     1
 40
1.0
176
     1
 90
        1
176
     1
 90
        6
176
     1
 90
        2
176
     1
 62
     7
176
     1
 90
        3
176
     1
 90
        0
176
     1
 90
        0
176
     1
290
     0
176
     1
 90
        1
176
     1
 40
0.0
176
     1
 90
        0
176
     1
290
     0
176
     1
290
     1
176
     1
290
     1
176
     1
290
     0
176
     1
290
     0
176
     1
290
     0
176
     1
290
     0
176
     1
290
     0
176
     1
290
     0
176
     1
 90
       50
176
     1
 40
0.0
176
     1
 40
1.0
176
     1
 90
        0
176
     1
 62
    18
420
        0
176
     1
 90
       50
176
     1
 90
        3
176
     1
 62
     5
420
      255
176
     1
290
     0
176
     1
 90
       50
176
     1
 90
       50
176
     1
 90
       50
176
     1
290
     0
176
     1
 90
       50
176
     1
 62
   256
176
     0
 40
1.0
176
     0
 90
        2
176
     1
  1
strokes_ogs.tif
176
     1
290
     0
176
     1
 40
1.0
176
     1
 40
1.0
176
     1
1001
ACAD
1000
AcDbSavedByObjectVersion
1070
     0
  0
VISUALSTYLE
  5
5FC4
102
{ACAD_REACTORS
330
5FB9
102
}
330
5FB9
100
AcDbVisualStyle
  2

 70
    11
177
     3
291
     1
 70
    58
 90
        2
176
     1
 90
        2
176
     1
 90
        0
176
     1
 90
        0
176
     1
 40
0.6
176
     1
 40
30.0
176
     1
 62
     7
176
     1
 90
        1
176
     1
 90
        4
176
     1
 62
     7
176
     1
 62
   257
176
     1
 90
        1
176
     1
 90
        1
176
     1
 40
1.0
176
     1
 90
        8
176
     1
 62
     7
176
     1
 40
1.0
176
     1
 90
        1
176
     1
 90
        6
176
     1
 90
        2
176
     1
 62
     7
176
     1
 90
        5
176
     1
 90
        0
176
     1
 90
        0
176
     1
290
     0
176
     1
 90
        1
176
     1
 40
-50.0
176
     1
 90
        0
176
     1
290
     0
176
     1
290
     1
176
     1
290
     1
176
     1
290
     0
176
     1
290
     0
176
     1
290
     0
176
     1
290
     0
176
     1
290
     0
176
     1
290
     0
176
     1
 90
       50
176
     1
 40
0.0
176
     1
 40
1.0
176
     1
 90
        0
176
     1
 62
    18
420
        0
176
     1
 90
       50
176
     1
 90
        3
176
     1
 62
     5
420
      255
176
     1
290
     0
176
     1
 90
       50
176
     1
 90
       50
176
     1
 90
       50
176
     1
290
     0
176
     1
 90
       50
176
     1
 62
   256
176
     0
 40
1.0
176
     0
 90
        2
176
     1
  1
strokes_ogs.tif
176
     1
290
     0
176
     1
 40
1.0
176
     1
 40
1.0
176
     1
1001
ACAD
1000
AcDbSavedByObjectVersion
1070
     0
  0
VISUALSTYLE
  5
665E
102
{ACAD_REACTORS
330
5FB9
102
}
330
5FB9
100
AcDbVisualStyle
  2

 70
    22
177
     3
291
     1
 70
    58
 90
        2
176
     0
 90
        2
176
     0
 90
        0
176
     0
 90
        0
176
     0
 40
0.6
176
     0
 40
30.0
176
     0
 62
     7
176
     0
 90
        1
176
     0
 90
        4
176
     0
 62
     7
176
     0
 62
   257
176
     0
 90
        1
176
     0
 90
        1
176
     0
 40
1.0
176
     0
 90
        8
176
     2
 62
     7
176
     0
 40
1.0
176
     0
 90
        1
176
     0
 90
        6
176
     0
 90
        2
176
     0
 62
     7
176
     0
 90
        5
176
     0
 90
        0
176
     0
 90
        0
176
     0
290
     0
176
     0
 90
        1
176
     0
 40
0.0
176
     0
 90
        0
176
     0
290
     0
176
     0
290
     1
176
     0
290
     1
176
     0
290
     0
176
     0
290
     0
176
     0
290
     0
176
     0
290
     0
176
     0
290
     0
176
     0
290
     0
176
     0
 90
       50
176
     0
 40
0.0
176
     0
 40
1.0
176
     0
 90
        0
176
     0
 62
    18
420
        0
176
     0
 90
       50
176
     0
 90
        3
176
     0
 62
     5
420
      255
176
     0
290
     0
176
     0
 90
       50
176
     0
 90
       50
176
     0
 90
       50
176
     0
290
     0
176
     0
 90
       50
176
     0
 62
   256
176
     0
 40
1.0
176
     0
 90
        2
176
     0
  1
strokes_ogs.tif
176
     0
290
     0
176
     0
 40
1.0
176
     0
 40
1.0
176
     0
1001
ACAD
1000
AcDbSavedByObjectVersion
1070
     0
  0
VISUALSTYLE
  5
5FC8
102
{ACAD_REACTORS
330
5FB9
102
}
330
5FB9
100
AcDbVisualStyle
  2

 70
    15
177
     3
291
     1
 70
    58
 90
        2
176
     1
 90
        2
176
     1
 90
        0
176
     1
 90
        0
176
     1
 40
0.6
176
     1
 40
30.0
176
     1
 62
     7
176
     1
 90
        1
176
     1
 90
        4
176
     1
 62
     7
176
     1
 62
   257
176
     1
 90
        1
176
     1
 90
        1
176
     1
 40
1.0
176
     1
 90
        8
176
     1
 62
     7
176
     1
 40
1.0
176
     1
 90
        1
176
     1
 90
        6
176
     1
 90
        2
176
     1
 62
     7
176
     1
 90
        5
176
     1
 90
        0
176
     1
 90
        0
176
     1
290
     0
176
     1
 90
        1
176
     1
 40
0.0
176
     1
 90
        0
176
     1
290
     0
176
     1
290
     1
176
     1
290
     1
176
     1
290
     0
176
     1
290
     0
176
     1
290
     0
176
     1
290
     0
176
     1
290
     0
176
     1
290
     0
176
     1
 90
       50
176
     1
 40
0.0
176
     1
 40
1.0
176
     1
 90
        0
176
     1
 62
    18
420
        0
176
     1
 90
       50
176
     1
 90
        3
176
     1
 62
     5
420
      255
176
     1
290
     0
176
     1
 90
       50
176
     1
 90
       50
176
     1
 90
       50
176
     1
290
     0
176
     1
 90
       50
176
     1
 62
   256
176
     0
 40
1.0
176
     0
 90
        2
176
     1
  1
strokes_ogs.tif
176
     1
290
     0
176
     1
 40
1.0
176
     1
 40
1.0
176
     1
1001
ACAD
1000
AcDbSavedByObjectVersion
1070
     0
  0
VISUALSTYLE
  5
5FBA
102
{ACAD_REACTORS
330
5FB9
102
}
330
5FB9
100
AcDbVisualStyle
  2

 70
     0
177
     3
291
     1
 70
    58
 90
        2
176
     1
 90
        1
176
     1
 90
        1
176
     1
 90
        2
176
     1
 40
0.6
176
     1
 40
30.0
176
     1
 62
     7
176
     1
 90
        0
176
     1
 90
        4
176
     1
 62
     7
176
     1
 62
   257
176
     1
 90
        1
176
     1
 90
        1
176
     1
 40
1.0
176
     1
 90
        8
176
     1
 62
     7
176
     1
 40
1.0
176
     1
 90
        1
176
     1
 90
        6
176
     1
 90
        2
176
     1
 62
     7
176
     1
 90
        5
176
     1
 90
        0
176
     1
 90
        0
176
     1
290
     0
176
     1
 90
       13
176
     1
 40
0.0
176
     1
 90
        0
176
     1
290
     0
176
     1
290
     1
176
     1
290
     1
176
     1
290
     0
176
     1
290
     0
176
     1
290
     0
176
     1
290
     0
176
     1
290
     0
176
     1
290
     0
176
     1
 90
       50
176
     1
 40
0.0
176
     1
 40
1.0
176
     1
 90
        0
176
     1
 62
    18
420
        0
176
     1
 90
       50
176
     1
 90
        3
176
     1
 62
     5
420
      255
176
     1
290
     0
176
     1
 90
       50
176
     1
 90
       50
176
     1
 90
       50
176
     1
290
     0
176
     1
 90
       50
176
     1
 62
   256
176
     0
 40
1.0
176
     0
 90
        2
176
     1
  1
strokes_ogs.tif
176
     1
290
     0
176
     1
 40
1.0
176
     1
 40
1.0
176
     1
1001
ACAD
1000
AcDbSavedByObjectVersion
1070
     0
  0
VISUALSTYLE
  5
5FBB
102
{ACAD_REACTORS
330
5FB9
102
}
330
5FB9
100
AcDbVisualStyle
  2

 70
     1
177
     3
291
     1
 70
    58
 90
        2
176
     1
 90
        1
176
     1
 90
        1
176
     1
 90
        2
176
     1
 40
0.6
176
     1
 40
30.0
176
     1
 62
     7
176
     1
 90
        1
176
     1
 90
        4
176
     1
 62
     7
176
     1
 62
   257
176
     1
 90
        1
176
     1
 90
        1
176
     1
 40
1.0
176
     1
 90
        0
176
     1
 62
   257
176
     1
 40
1.0
176
     1
 90
        1
176
     1
 90
        6
176
     1
 90
        2
176
     1
 62
     7
176
     1
 90
        5
176
     1
 90
        0
176
     1
 90
        0
176
     1
290
     0
176
     1
 90
       13
176
     1
 40
0.0
176
     1
 90
        0
176
     1
290
     0
176
     1
290
     1
176
     1
290
     1
176
     1
290
     0
176
     1
290
     0
176
     1
290
     0
176
     1
290
     0
176
     1
290
     0
176
     1
290
     0
176
     1
 90
       50
176
     1
 40
0.0
176
     1
 40
1.0
176
     1
 90
        0
176
     1
 62
    18
420
        0
176
     1
 90
       50
176
     1
 90
        3
176
     1
 62
     5
420
      255
176
     1
290
     0
176
     1
 90
       50
176
     1
 90
       50
176
     1
 90
       50
176
     1
290
     0
176
     1
 90
       50
176
     1
 62
   256
176
     0
 40
1.0
176
     0
 90
        2
176
     1
  1
strokes_ogs.tif
176
     1
290
     0
176
     1
 40
1.0
176
     1
 40
1.0
176
     1
1001
ACAD
1000
AcDbSavedByObjectVersion
1070
     0
  0
VISUALSTYLE
  5
5FBC
102
{ACAD_REACTORS
330
5FB9
102
}
330
5FB9
100
AcDbVisualStyle
  2

 70
     2
177
     3
291
     1
 70
    58
 90
        2
176
     1
 90
        2
176
     1
 90
        1
176
     1
 90
        2
176
     1
 40
0.6
176
     1
 40
30.0
176
     1
 62
     7
176
     1
 90
        0
176
     1
 90
        4
176
     1
 62
     7
176
     1
 62
   257
176
     1
 90
        1
176
     1
 90
        1
176
     1
 40
1.0
176
     1
 90
        0
176
     1
 62
     7
176
     1
 40
1.0
176
     1
 90
        1
176
     1
 90
        6
176
     1
 90
        2
176
     1
 62
     7
176
     1
 90
        5
176
     1
 90
        0
176
     1
 90
        0
176
     1
290
     0
176
     1
 90
       13
176
     1
 40
0.0
176
     1
 90
        0
176
     1
290
     0
176
     1
290
     1
176
     1
290
     1
176
     1
290
     0
176
     1
290
     0
176
     1
290
     0
176
     1
290
     0
176
     1
290
     0
176
     1
290
     0
176
     1
 90
       50
176
     1
 40
0.0
176
     1
 40
1.0
176
     1
 90
        0
176
     1
 62
    18
420
        0
176
     1
 90
       50
176
     1
 90
        3
176
     1
 62
     5
420
      255
176
     1
290
     0
176
     1
 90
       50
176
     1
 90
       50
176
     1
 90
       50
176
     1
290
     0
176
     1
 90
       50
176
     1
 62
   256
176
     0
 40
1.0
176
     0
 90
        2
176
     1
  1
strokes_ogs.tif
176
     1
290
     0
176
     1
 40
1.0
176
     1
 40
1.0
176
     1
1001
ACAD
1000
AcDbSavedByObjectVersion
1070
     0
  0
VISUALSTYLE
  5
5FBD
102
{ACAD_REACTORS
330
5FB9
102
}
330
5FB9
100
AcDbVisualStyle
  2

 70
     3
177
     3
291
     1
 70
    58
 90
        2
176
     1
 90
        2
176
     1
 90
        1
176
     1
 90
        2
176
     1
 40
0.6
176
     1
 40
30.0
176
     1
 62
     7
176
     1
 90
        1
176
     1
 90
        4
176
     1
 62
     7
176
     1
 62
   257
176
     1
 90
        1
176
     1
 90
        1
176
     1
 40
1.0
176
     1
 90
        0
176
     1
 62
   257
176
     1
 40
1.0
176
     1
 90
        1
176
     1
 90
        6
176
     1
 90
        2
176
     1
 62
     7
176
     1
 90
        5
176
     1
 90
        0
176
     1
 90
        0
176
     1
290
     0
176
     1
 90
       13
176
     1
 40
0.0
176
     1
 90
        0
176
     1
290
     0
176
     1
290
     1
176
     1
290
     1
176
     1
290
     0
176
     1
290
     0
176
     1
290
     0
176
     1
290
     0
176
     1
290
     0
176
     1
290
     0
176
     1
 90
       50
176
     1
 40
0.0
176
     1
 40
1.0
176
     1
 90
        0
176
     1
 62
    18
420
        0
176
     1
 90
       50
176
     1
 90
        3
176
     1
 62
     5
420
      255
176
     1
290
     0
176
     1
 90
       50
176
     1
 90
       50
176
     1
 90
       50
176
     1
290
     0
176
     1
 90
       50
176
     1
 62
   256
176
     0
 40
1.0
176
     0
 90
        2
176
     1
  1
strokes_ogs.tif
176
     1
290
     0
176
     1
 40
1.0
176
     1
 40
1.0
176
     1
1001
ACAD
1000
AcDbSavedByObjectVersion
1070
     0
  0
VISUALSTYLE
  5
6656
102
{ACAD_REACTORS
330
5FB9
102
}
330
5FB9
100
AcDbVisualStyle
  2

 70
     6
177
     3
291
     0
 70
    58
 90
        1
176
     1
 90
        2
176
     1
 90
        2
176
     1
 90
        0
176
     1
 40
0.6
176
     1
 40
30.0
176
     1
 62
     7
176
     1
 90
        2
176
     1
 90
        2
176
     1
 62
     7
176
     1
 62
   257
176
     1
 90
        2
176
     1
 90
        1
176
     1
 40
40.0
176
     1
 90
        0
176
     1
 62
   257
176
     1
 40
1.0
176
     1
 90
        1
176
     1
 90
        6
176
     1
 90
        2
176
     1
 62
     7
176
     1
 90
        3
176
     1
 90
        0
176
     1
 90
        0
176
     1
290
     0
176
     1
 90
        1
176
     1
 40
0.0
176
     1
 90
        0
176
     1
290
     0
176
     1
290
     1
176
     1
290
     1
176
     1
290
     0
176
     1
290
     0
176
     1
290
     0
176
     1
290
     0
176
     1
290
     0
176
     1
290
     0
176
     1
 90
       50
176
     1
 40
0.0
176
     1
 40
1.0
176
     1
 90
        0
176
     1
 62
    18
420
        0
176
     1
 90
       50
176
     1
 90
        3
176
     1
 62
     5
420
      255
176
     1
290
     0
176
     1
 90
       50
176
     1
 90
       50
176
     1
 90
       50
176
     1
290
     0
176
     1
 90
       50
176
     1
 62
   256
176
     0
 40
1.0
176
     0
 90
        2
176
     1
  1
strokes_ogs.tif
176
     1
290
     0
176
     1
 40
1.0
176
     1
 40
1.0
176
     1
1001
ACAD
1000
AcDbSavedByObjectVersion
1070
     0
  0
VISUALSTYLE
  5
665C
102
{ACAD_REACTORS
330
5FB9
102
}
330
5FB9
100
AcDbVisualStyle
  2

 70
    20
177
     3
291
     1
 70
    58
 90
        2
176
     0
 90
        2
176
     0
 90
        0
176
     0
 90
        0
176
     0
 40
0.6
176
     0
 40
30.0
176
     0
 62
     7
176
     0
 90
        1
176
     0
 90
        4
176
     0
 62
     7
176
     0
 62
   257
176
     0
 90
        1
176
     0
 90
        1
176
     0
 40
1.0
176
     0
 90
       10
176
     2
 62
     7
176
     0
 40
1.0
176
     0
 90
        1
176
     0
 90
        6
176
     0
 90
        2
176
     0
 62
     7
176
     0
 90
        5
176
     0
 90
        0
176
     0
 90
        0
176
     0
290
     0
176
     0
 90
        1
176
     0
 40
0.0
176
     0
 90
        0
176
     0
290
     0
176
     0
290
     1
176
     0
290
     1
176
     0
290
     0
176
     0
290
     0
176
     0
290
     0
176
     0
290
     0
176
     0
290
     0
176
     0
290
     0
176
     0
 90
       50
176
     0
 40
0.0
176
     0
 40
1.0
176
     0
 90
        0
176
     0
 62
    18
420
        0
176
     0
 90
       50
176
     0
 90
        3
176
     0
 62
     5
420
      255
176
     0
290
     0
176
     0
 90
       50
176
     0
 90
       50
176
     0
 90
       50
176
     0
290
     0
176
     0
 90
       50
176
     0
 62
   256
176
     0
 40
1.0
176
     0
 90
        2
176
     0
  1
strokes_ogs.tif
176
     0
290
     0
176
     0
 40
1.0
176
     0
 40
1.0
176
     0
1001
ACAD
1000
AcDbSavedByObjectVersion
1070
     0
  0
VISUALSTYLE
  5
5FC7
102
{ACAD_REACTORS
330
5FB9
102
}
330
5FB9
100
AcDbVisualStyle
  2

 70
    14
177
     3
291
     1
 70
    58
 90
        2
176
     1
 90
        2
176
     1
 90
        0
176
     1
 90
        0
176
     1
 40
0.6
176
     1
 40
30.0
176
     1
 62
     7
176
     1
 90
        1
176
     1
 90
        4
176
     1
 62
     7
176
     1
 62
   257
176
     1
 90
        7
176
     1
 90
        7
176
     1
 40
1.0
176
     1
 90
        8
176
     1
 62
     7
176
     1
 40
1.0
176
     1
 90
        1
176
     1
 90
        6
176
     1
 90
        2
176
     1
 62
     7
176
     1
 90
        5
176
     1
 90
        0
176
     1
 90
        0
176
     1
290
     0
176
     1
 90
        1
176
     1
 40
0.0
176
     1
 90
        0
176
     1
290
     0
176
     1
290
     1
176
     1
290
     1
176
     1
290
     0
176
     1
290
     0
176
     1
290
     0
176
     1
290
     0
176
     1
290
     0
176
     1
290
     0
176
     1
 90
       50
176
     1
 40
0.0
176
     1
 40
1.0
176
     1
 90
        0
176
     1
 62
    18
420
        0
176
     1
 90
       50
176
     1
 90
        3
176
     1
 62
     5
420
      255
176
     1
290
     0
176
     1
 90
       50
176
     1
 90
       50
176
     1
 90
       50
176
     1
290
     0
176
     1
 90
       50
176
     1
 62
   256
176
     0
 40
1.0
176
     0
 90
        2
176
     1
  1
strokes_ogs.tif
176
     1
290
     0
176
     1
 40
1.0
176
     1
 40
1.0
176
     1
1001
ACAD
1000
AcDbSavedByObjectVersion
1070
     0
  0
VISUALSTYLE
  5
665D
102
{ACAD_REACTORS
330
5FB9
102
}
330
5FB9
100
AcDbVisualStyle
  2

 70
    21
177
     3
291
     1
 70
    58
 90
        2
176
     0
 90
        2
176
     0
 90
        0
176
     0
 90
        0
176
     0
 40
0.6
176
     0
 40
30.0
176
     0
 62
     7
176
     0
 90
        1
176
     0
 90
        4
176
     0
 62
     7
176
     0
 62
   257
176
     0
 90
        1
176
     0
 90
        1
176
     0
 40
1.0
176
     0
 90
        9
176
     2
 62
     7
176
     0
 40
1.0
176
     0
 90
        1
176
     0
 90
        6
176
     0
 90
        2
176
     0
 62
     7
176
     0
 90
        5
176
     0
 90
        0
176
     0
 90
        0
176
     0
290
     0
176
     0
 90
        1
176
     0
 40
0.0
176
     0
 90
        0
176
     0
290
     0
176
     0
290
     1
176
     0
290
     1
176
     0
290
     0
176
     0
290
     0
176
     0
290
     0
176
     0
290
     0
176
     0
290
     0
176
     0
290
     0
176
     0
 90
       50
176
     0
 40
0.0
176
     0
 40
1.0
176
     0
 90
        0
176
     0
 62
    18
420
        0
176
     0
 90
       50
176
     0
 90
        3
176
     0
 62
     5
420
      255
176
     0
290
     0
176
     0
 90
       50
176
     0
 90
       50
176
     0
 90
       50
176
     0
290
     0
176
     0
 90
       50
176
     0
 62
   256
176
     0
 40
1.0
176
     0
 90
        2
176
     0
  1
strokes_ogs.tif
176
     0
290
     0
176
     0
 40
1.0
176
     0
 40
1.0
176
     0
1001
ACAD
1000
AcDbSavedByObjectVersion
1070
     0
  0
VISUALSTYLE
  5
5FC3
102
{ACAD_REACTORS
330
5FB9
102
}
330
5FB9
100
AcDbVisualStyle
  2

 70
     8
177
     3
291
     0
 70
    58
 90
        2
176
     1
 90
        2
176
     1
 90
        0
176
     1
 90
        0
176
     1
 40
0.6
176
     1
 40
30.0
176
     1
 62
     7
176
     1
 90
        1
176
     1
 90
        0
176
     1
 62
     7
176
     1
 62
   257
176
     1
 90
        1
176
     1
 90
        1
176
     1
 40
1.0
176
     1
 90
        8
176
     1
 62
     8
176
     1
 40
1.0
176
     1
 90
        1
176
     1
 90
        6
176
     1
 90
        2
176
     1
 62
     7
176
     1
 90
        5
176
     1
 90
        0
176
     1
 90
        0
176
     1
290
     0
176
     1
 90
       13
176
     1
 40
0.0
176
     1
 90
        0
176
     1
290
     0
176
     1
290
     1
176
     1
290
     1
176
     1
290
     0
176
     1
290
     0
176
     1
290
     0
176
     1
290
     0
176
     1
290
     0
176
     1
290
     0
176
     1
 90
       50
176
     1
 40
0.0
176
     1
 40
1.0
176
     1
 90
        0
176
     1
 62
    18
420
        0
176
     1
 90
       50
176
     1
 90
        3
176
     1
 62
     5
420
      255
176
     1
290
     0
176
     1
 90
       50
176
     1
 90
       50
176
     1
 90
       50
176
     1
290
     0
176
     1
 90
       50
176
     1
 62
   256
176
     0
 40
1.0
176
     0
 90
        2
176
     1
  1
strokes_ogs.tif
176
     1
290
     0
176
     1
 40
1.0
176
     1
 40
1.0
176
     1
1001
ACAD
1000
AcDbSavedByObjectVersion
1070
     0
  0
VISUALSTYLE
  5
665B
102
{ACAD_REACTORS
330
5FB9
102
}
330
5FB9
100
AcDbVisualStyle
  2

 70
    27
177
     3
291
     0
 70
    58
 90
        2
176
     1
 90
        2
176
     1
 90
        1
176
     1
 90
        2
176
     1
 40
0.6
176
     1
 40
30.0
176
     1
 62
     7
176
     1
 90
        0
176
     1
 90
        4
176
     1
 62
     7
176
     1
 62
   257
176
     1
 90
        1
176
     1
 90
        1
176
     1
 40
1.0
176
     1
 90
        8
176
     1
 62
   257
176
     1
 40
1.0
176
     1
 90
        1
176
     1
 90
        6
176
     1
 90
        2
176
     1
 62
     8
176
     1
 90
        3
176
     1
 90
        0
176
     1
 90
        0
176
     1
290
     0
176
     1
 90
        5
176
     1
 40
0.0
176
     1
 90
        0
176
     1
290
     0
176
     1
290
     1
176
     1
290
     1
176
     1
290
     0
176
     1
290
     0
176
     1
290
     0
176
     1
290
     0
176
     1
290
     0
176
     1
290
     0
176
     1
 90
       50
176
     1
 40
0.0
176
     1
 40
1.0
176
     1
 90
        0
176
     1
 62
    18
420
        0
176
     1
 90
       50
176
     1
 90
        3
176
     1
 62
     5
420
      255
176
     1
290
     0
176
     1
 90
       50
176
     1
 90
       50
176
     1
 90
       50
176
     1
290
     0
176
     1
 90
       50
176
     1
 62
   256
176
     0
 40
1.0
176
     0
 90
        2
176
     1
  1
strokes_ogs.tif
176
     1
290
     0
176
     1
 40
1.0
176
     1
 40
1.0
176
     1
1001
ACAD
1000
AcDbSavedByObjectVersion
1070
     0
  0
VISUALSTYLE
  5
665A
102
{ACAD_REACTORS
330
5FB9
102
}
330
5FB9
100
AcDbVisualStyle
  2

 70
    26
177
     3
291
     0
 70
    58
 90
        2
176
     1
 90
        2
176
     1
 90
        1
176
     1
 90
        2
176
     1
 40
0.6
176
     1
 40
30.0
176
     1
 62
     7
176
     1
 90
        1
176
     1
 90
        2
176
     1
 62
     7
176
     1
 62
   257
176
     1
 90
        2
176
     1
 90
        1
176
     1
 40
1.0
176
     1
 90
        8
176
     1
 62
   257
176
     1
 40
1.0
176
     1
 90
        1
176
     1
 90
        6
176
     1
 90
        2
176
     1
 62
     7
176
     1
 90
        3
176
     1
 90
        0
176
     1
 90
        0
176
     1
290
     0
176
     1
 90
        5
176
     1
 40
0.0
176
     1
 90
        0
176
     1
290
     0
176
     1
290
     1
176
     1
290
     1
176
     1
290
     0
176
     1
290
     0
176
     1
290
     0
176
     1
290
     0
176
     1
290
     0
176
     1
290
     0
176
     1
 90
       50
176
     1
 40
0.0
176
     1
 40
1.0
176
     1
 90
        0
176
     1
 62
    18
420
        0
176
     1
 90
       50
176
     1
 90
        3
176
     1
 62
     5
420
      255
176
     1
290
     0
176
     1
 90
       50
176
     1
 90
       50
176
     1
 90
       50
176
     1
290
     0
176
     1
 90
       50
176
     1
 62
   256
176
     0
 40
1.0
176
     0
 90
        2
176
     1
  1
strokes_ogs.tif
176
     1
290
     0
176
     1
 40
1.0
176
     1
 40
1.0
176
     1
1001
ACAD
1000
AcDbSavedByObjectVersion
1070
     0
  0
VISUALSTYLE
  5
6657
102
{ACAD_REACTORS
330
5FB9
102
}
330
5FB9
100
AcDbVisualStyle
  2

 70
    23
177
     3
291
     0
 70
    58
 90
        2
176
     1
 90
        2
176
     1
 90
        3
176
     1
 90
        0
176
     1
 40
0.6
176
     1
 40
30.0
176
     1
 62
     7
176
     1
 90
        2
176
     1
 90
        2
176
     1
 62
     7
176
     1
 62
     7
176
     1
 90
        1
176
     1
 90
        1
176
     1
 40
40.0
176
     1
 90
        8
176
     1
 62
     7
176
     1
 40
1.0
176
     1
 90
        1
176
     1
 90
        6
176
     1
 90
        2
176
     1
 62
     7
176
     1
 90
        3
176
     1
 90
        0
176
     1
 90
        0
176
     1
290
     0
176
     1
 90
        1
176
     1
 40
0.0
176
     1
 90
        0
176
     1
290
     0
176
     1
290
     1
176
     1
290
     1
176
     1
290
     0
176
     1
290
     0
176
     1
290
     0
176
     1
290
     0
176
     1
290
     0
176
     1
290
     0
176
     1
 90
       50
176
     1
 40
0.0
176
     1
 40
1.0
176
     1
 90
        0
176
     1
 62
    18
420
        0
176
     1
 90
       50
176
     1
 90
        3
176
     1
 62
     5
420
      255
176
     1
290
     0
176
     1
 90
       50
176
     1
 90
       50
176
     1
 90
       50
176
     1
290
     0
176
     1
 90
       50
176
     1
 62
   256
176
     0
 40
1.0
176
     0
 90
        2
176
     1
  1
strokes_ogs.tif
176
     1
290
     0
176
     1
 40
1.0
176
     1
 40
1.0
176
     1
1001
ACAD
1000
AcDbSavedByObjectVersion
1070
     0
  0
VISUALSTYLE
  5
6658
102
{ACAD_REACTORS
330
5FB9
102
}
330
5FB9
100
AcDbVisualStyle
  2

 70
    24
177
     3
291
     0
 70
    58
 90
        1
176
     1
 90
        2
176
     1
 90
        2
176
     1
 90
        0
176
     1
 40
0.6
176
     1
 40
30.0
176
     1
 62
     7
176
     1
 90
        2
176
     1
 90
        2
176
     1
 62
     7
176
     1
 62
     7
176
     1
 90
        1
176
     1
 90
        1
176
     1
 40
40.0
176
     1
 90
       11
176
     1
 62
     7
176
     1
 40
1.0
176
     1
 90
        1
176
     1
 90
        6
176
     1
 90
        2
176
     1
 62
     7
176
     1
 90
        6
176
     1
 90
        0
176
     1
 90
        0
176
     1
290
     0
176
     1
 90
        1
176
     1
 40
0.0
176
     1
 90
        0
176
     1
290
     0
176
     1
290
     1
176
     1
290
     1
176
     1
290
     0
176
     1
290
     0
176
     1
290
     0
176
     1
290
     0
176
     1
290
     0
176
     1
290
     0
176
     1
 90
       50
176
     1
 40
0.0
176
     1
 40
1.0
176
     1
 90
        0
176
     1
 62
    18
420
        0
176
     1
 90
       50
176
     1
 90
        3
176
     1
 62
     5
420
      255
176
     1
290
     0
176
     1
 90
       50
176
     1
 90
       50
176
     1
 90
       50
176
     1
290
     0
176
     1
 90
       50
176
     1
 62
   256
176
     0
 40
1.0
176
     0
 90
        2
176
     1
  1
strokes_ogs.tif
176
     1
290
     0
176
     1
 40
1.0
176
     1
 40
1.0
176
     1
1001
ACAD
1000
AcDbSavedByObjectVersion
1070
     0
  0
VISUALSTYLE
  5
5FC6
102
{ACAD_REACTORS
330
5FB9
102
}
330
5FB9
100
AcDbVisualStyle
  2

 70
    13
177
     3
291
     1
 70
    58
 90
        2
176
     1
 90
        2
176
     1
 90
        0
176
     1
 90
        0
176
     1
 40
0.6
176
     1
 40
30.0
176
     1
 62
     7
176
     1
 90
        1
176
     1
 90
        4
176
     1
 62
     7
176
     1
 62
   257
176
     1
 90
        1
176
     1
 90
        1
176
     1
 40
1.0
176
     1
 90
       12
176
     1
 62
     7
176
     1
 40
1.0
176
     1
 90
        1
176
     1
 90
        6
176
     1
 90
        2
176
     1
 62
     7
176
     1
 90
        5
176
     1
 90
        0
176
     1
 90
        0
176
     1
290
     0
176
     1
 90
        1
176
     1
 40
0.0
176
     1
 90
        0
176
     1
290
     0
176
     1
290
     1
176
     1
290
     1
176
     1
290
     0
176
     1
290
     0
176
     1
290
     0
176
     1
290
     0
176
     1
290
     0
176
     1
290
     0
176
     1
 90
       50
176
     1
 40
0.0
176
     1
 40
1.0
176
     1
 90
        0
176
     1
 62
    18
420
        0
176
     1
 90
       50
176
     1
 90
        3
176
     1
 62
     5
420
      255
176
     1
290
     0
176
     1
 90
       50
176
     1
 90
       50
176
     1
 90
       50
176
     1
290
     0
176
     1
 90
       50
176
     1
 62
   256
176
     0
 40
1.0
176
     0
 90
        2
176
     1
  1
strokes_ogs.tif
176
     1
290
     0
176
     1
 40
1.0
176
     1
 40
1.0
176
     1
1001
ACAD
1000
AcDbSavedByObjectVersion
1070
     0
  0
VISUALSTYLE
  5
6655
102
{ACAD_REACTORS
330
5FB9
102
}
330
5FB9
100
AcDbVisualStyle
  2

 70
     5
177
     3
291
     0
 70
    58
 90
        0
176
     1
 90
        2
176
     1
 90
        0
176
     1
 90
        0
176
     1
 40
0.6
176
     1
 40
30.0
176
     1
 62
     7
176
     1
 90
        1
176
     1
 90
        4
176
     1
 62
     7
176
     1
 62
   257
176
     1
 90
        1
176
     1
 90
        1
176
     1
 40
1.0
176
     1
 90
        0
176
     1
 62
   257
176
     1
 40
1.0
176
     1
 90
        1
176
     1
 90
        6
176
     1
 90
        2
176
     1
 62
     7
176
     1
 90
        3
176
     1
 90
        0
176
     1
 90
        0
176
     1
290
     0
176
     1
 90
        1
176
     1
 40
0.0
176
     1
 90
        0
176
     1
290
     0
176
     1
290
     1
176
     1
290
     1
176
     1
290
     0
176
     1
290
     0
176
     1
290
     0
176
     1
290
     0
176
     1
290
     0
176
     1
290
     0
176
     1
 90
       50
176
     1
 40
0.0
176
     1
 40
1.0
176
     1
 90
        0
176
     1
 62
    18
420
        0
176
     1
 90
       50
176
     1
 90
        3
176
     1
 62
     5
420
      255
176
     1
290
     0
176
     1
 90
       50
176
     1
 90
       50
176
     1
 90
       50
176
     1
290
     0
176
     1
 90
       50
176
     1
 62
   256
176
     0
 40
1.0
176
     0
 90
        2
176
     1
  1
strokes_ogs.tif
176
     1
290
     0
176
     1
 40
1.0
176
     1
 40
1.0
176
     1
1001
ACAD
1000
AcDbSavedByObjectVersion
1070
     0
  0
VISUALSTYLE
  5
6659
102
{ACAD_REACTORS
330
5FB9
102
}
330
5FB9
100
AcDbVisualStyle
  2

 70
    25
177
     3
291
     0
 70
    58
 90
        2
176
     1
 90
        2
176
     1
 90
        1
176
     1
 90
        1
176
     1
 40
0.5
176
     1
 40
30.0
176
     1
 62
     7
176
     1
 90
        1
176
     1
 90
        0
176
     1
 62
     7
176
     1
 62
   257
176
     1
 90
        1
176
     1
 90
        1
176
     1
 40
1.0
176
     1
 90
        8
176
     1
 62
     7
176
     1
 40
1.0
176
     1
 90
        1
176
     1
 90
        6
176
     1
 90
        2
176
     1
 62
     7
176
     1
 90
        3
176
     1
 90
        0
176
     1
 90
        0
176
     1
290
     0
176
     1
 90
       13
176
     1
 40
0.0
176
     1
 90
        0
176
     1
290
     0
176
     1
290
     1
176
     1
290
     1
176
     1
290
     0
176
     1
290
     0
176
     1
290
     0
176
     1
290
     0
176
     1
290
     0
176
     1
290
     0
176
     1
 90
       50
176
     1
 40
0.0
176
     1
 40
1.0
176
     1
 90
        0
176
     1
 62
    18
420
        0
176
     1
 90
       50
176
     1
 90
        3
176
     1
 62
     5
420
      255
176
     1
290
     0
176
     1
 90
       50
176
     1
 90
       50
176
     1
 90
       50
176
     1
290
     0
176
     1
 90
       50
176
     1
 62
   256
176
     0
 40
1.0
176
     0
 90
        2
176
     1
  1
strokes_ogs.tif
176
     1
290
     0
176
     1
 40
1.0
176
     1
 40
1.0
176
     1
1001
ACAD
1000
AcDbSavedByObjectVersion
1070
     0
  0
DICTIONARYVAR
  5
F580
102
{ACAD_REACTORS
330
F57B
102
}
330
F57B
100
DictionaryVariables
280
     0
  1
1:1
  0
DICTIONARYVAR
  5
F57D
102
{ACAD_REACTORS
330
F57B
102
}
330
F57B
100
DictionaryVariables
280
     0
  1
STANDARD
  0
DICTIONARYVAR
  5
F57C
102
{ACAD_REACTORS
330
F57B
102
}
330
F57B
100
DictionaryVariables
280
     0
  1
STANDARD
  0
DICTIONARYVAR
  5
F57E
102
{ACAD_REACTORS
330
F57B
102
}
330
F57B
100
DictionaryVariables
280
     0
  1
Imperial24
  0
DICTIONARYVAR
  5
F57F
102
{ACAD_REACTORS
330
F57B
102
}
330
F57B
100
DictionaryVariables
280
     0
  1
Imperial24
  0
DICTIONARYVAR
  5
F583
102
{ACAD_REACTORS
330
F57B
102
}
330
F57B
100
DictionaryVariables
280
     0
  1
1
  0
DICTIONARYVAR
  5
F582
102
{ACAD_REACTORS
330
F57B
102
}
330
F57B
100
DictionaryVariables
280
     0
  1
0
  0
DICTIONARYVAR
  5
10832
102
{ACAD_REACTORS
330
F57B
102
}
330
F57B
100
DictionaryVariables
280
     0
  1
1
  0
DICTIONARYVAR
  5
10833
102
{ACAD_REACTORS
330
F57B
102
}
330
F57B
100
DictionaryVariables
280
     0
  1
15
  0
DICTIONARYVAR
  5
10831
102
{ACAD_REACTORS
330
F57B
102
}
330
F57B
100
DictionaryVariables
280
     0
  1
0
  0
DICTIONARYVAR
  5
10830
102
{ACAD_REACTORS
330
F57B
102
}
330
F57B
100
DictionaryVariables
280
     0
  1
0
  0
DICTIONARYVAR
  5
F581
102
{ACAD_REACTORS
330
F57B
102
}
330
F57B
100
DictionaryVariables
280
     0
  1
127
  0
DICTIONARY
  5
10C72
102
{ACAD_REACTORS
330
10C70
102
}
330
10C70
100
AcDbDictionary
281
     1
  0
DICTIONARY
  5
10C71
102
{ACAD_REACTORS
330
10C70
102
}
330
10C70
100
AcDbDictionary
281
     1
  3
2170458558896
350
10C6B
  3
2170458558912
350
10C6C
  3
2170458558928
350
10C6D
  3
2170458558944
350
10C6E
  3
2170458558960
350
10C6F
  0
DICTIONARY
  5
10C75
330
6662
100
AcDbDictionary
280
     1
281
     1
  3
ACAD_XREC_ROUNDTRIP
360
10C76
  0
DICTIONARY
  5
F2
330
21
100
AcDbDictionary
280
     1
281
     1
  0
DICTIONARY
  5
668A
330
20
100
AcDbDictionary
280
     1
281
     1
  0
DICTIONARY
  5
5FAA
330
5FA9
100
AcDbDictionary
280
     1
281
     1
  3
BUMPTILE
360
5FAC
  3
DIFFUSETILE
360
5FAB
  3
OPACITYTILE
360
5FAF
  3
REFLECTIONTILE
360
5FAE
  3
REFRACTIONTILE
360
5FB0
  3
SPECULARTILE
360
5FAD
  0
DICTIONARY
  5
5FA2
330
5FA1
100
AcDbDictionary
280
     1
281
     1
  3
BUMPTILE
360
5FA4
  3
DIFFUSETILE
360
5FA3
  3
OPACITYTILE
360
5FA7
  3
REFLECTIONTILE
360
5FA6
  3
REFRACTIONTILE
360
5FA8
  3
SPECULARTILE
360
5FA5
  0
DICTIONARY
  5
5FB2
330
5FB1
100
AcDbDictionary
280
     1
281
     1
  3
BUMPTILE
360
5FB4
  3
DIFFUSETILE
360
5FB3
  3
OPACITYTILE
360
5FB7
  3
REFLECTIONTILE
360
5FB6
  3
REFRACTIONTILE
360
5FB8
  3
SPECULARTILE
360
5FB5
  0
DICTIONARY
  5
10C73
330
6660
100
AcDbDictionary
280
     1
281
     1
  3
ACAD_XREC_ROUNDTRIP
360
10C74
  0
DICTIONARY
  5
6034
330
63
100
AcDbDictionary
280
     1
281
     1
  3
ACAD_ROUNDTRIP_2008_TABLESTYLE_CELLSTYLEMAP
360
10C63
  0
XRECORD
  5
10C6B
102
{ACAD_REACTORS
330
10C71
102
}
330
10C71
100
AcDbXrecord
280
     1
  1
AcDb_Thumbnail_Schema
102
{ATTRRECORD
341
10C6C
  2
AcDbDs::TreatedAsObjectData
280
     1
291
     1
102
ATTRRECORD}
102
{ATTRRECORD
341
10C6D
  2
AcDbDs::Legacy
280
     1
291
     1
102
ATTRRECORD}
  2
AcDbDs::ID
280
    10
 91
        8
102
{ATTRRECORD
341
10C6E
  2
AcDs:Indexable
280
     1
291
     1
102
ATTRRECORD}
102
{ATTRRECORD
341
10C6F
  2
AcDbDs::HandleAttribute
280
     7
282
     1
102
ATTRRECORD}
  2
Thumbnail_Data
280
    15
 91
        0
  0
XRECORD
  5
10C6C
102
{ACAD_REACTORS
330
10C71
102
}
330
10C71
100
AcDbXrecord
280
     1
  1
AcDbDs::TreatedAsObjectDataSchema
  2
AcDbDs::TreatedAsObjectData
280
     1
 91
        0
  0
XRECORD
  5
10C6D
102
{ACAD_REACTORS
330
10C71
102
}
330
10C71
100
AcDbXrecord
280
     1
  1
AcDbDs::LegacySchema
  2
AcDbDs::Legacy
280
     1
 91
        0
  0
XRECORD
  5
10C6E
102
{ACAD_REACTORS
330
10C71
102
}
330
10C71
100
AcDbXrecord
280
     1
  1
AcDbDs::IndexedPropertySchema
  2
AcDs:Indexable
280
     1
 91
        0
  0
XRECORD
  5
10C6F
102
{ACAD_REACTORS
330
10C71
102
}
330
10C71
100
AcDbXrecord
280
     1
  1
AcDbDs::HandleAttributeSchema
  2
AcDbDs::HandleAttribute
280
     7
 91
        1
284
     1
  0
XRECORD
  5
10C76
102
{ACAD_REACTORS
330
10C75
102
}
330
10C75
100
AcDbXrecord
280
     1
102
DISPLAYNAME
  1
Imperial24
102
FLAGS
 90
        0
  0
XRECORD
  5
5FAC
102
{ACAD_REACTORS
330
5FAA
102
}
330
5FAA
100
AcDbXrecord
280
     1
270
     1
271
     1
  0
XRECORD
  5
5FAB
102
{ACAD_REACTORS
330
5FAA
102
}
330
5FAA
100
AcDbXrecord
280
     1
270
     1
271
     1
  0
XRECORD
  5
5FAF
102
{ACAD_REACTORS
330
5FAA
102
}
330
5FAA
100
AcDbXrecord
280
     1
270
     1
271
     1
  0
XRECORD
  5
5FAE
102
{ACAD_REACTORS
330
5FAA
102
}
330
5FAA
100
AcDbXrecord
280
     1
270
     1
271
     1
  0
XRECORD
  5
5FB0
102
{ACAD_REACTORS
330
5FAA
102
}
330
5FAA
100
AcDbXrecord
280
     1
270
     1
271
     1
  0
XRECORD
  5
5FAD
102
{ACAD_REACTORS
330
5FAA
102
}
330
5FAA
100
AcDbXrecord
280
     1
270
     1
271
     1
  0
XRECORD
  5
5FA4
102
{ACAD_REACTORS
330
5FA2
102
}
330
5FA2
100
AcDbXrecord
280
     1
270
     1
271
     1
  0
XRECORD
  5
5FA3
102
{ACAD_REACTORS
330
5FA2
102
}
330
5FA2
100
AcDbXrecord
280
     1
270
     1
271
     1
  0
XRECORD
  5
5FA7
102
{ACAD_REACTORS
330
5FA2
102
}
330
5FA2
100
AcDbXrecord
280
     1
270
     1
271
     1
  0
XRECORD
  5
5FA6
102
{ACAD_REACTORS
330
5FA2
102
}
330
5FA2
100
AcDbXrecord
280
     1
270
     1
271
     1
  0
XRECORD
  5
5FA8
102
{ACAD_REACTORS
330
5FA2
102
}
330
5FA2
100
AcDbXrecord
280
     1
270
     1
271
     1
  0
XRECORD
  5
5FA5
102
{ACAD_REACTORS
330
5FA2
102
}
330
5FA2
100
AcDbXrecord
280
     1
270
     1
271
     1
  0
XRECORD
  5
5FB4
102
{ACAD_REACTORS
330
5FB2
102
}
330
5FB2
100
AcDbXrecord
280
     1
270
     1
271
     1
  0
XRECORD
  5
5FB3
102
{ACAD_REACTORS
330
5FB2
102
}
330
5FB2
100
AcDbXrecord
280
     1
270
     1
271
     1
  0
XRECORD
  5
5FB7
102
{ACAD_REACTORS
330
5FB2
102
}
330
5FB2
100
AcDbXrecord
280
     1
270
     1
271
     1
  0
XRECORD
  5
5FB6
102
{ACAD_REACTORS
330
5FB2
102
}
330
5FB2
100
AcDbXrecord
280
     1
270
     1
271
     1
  0
XRECORD
  5
5FB8
102
{ACAD_REACTORS
330
5FB2
102
}
330
5FB2
100
AcDbXrecord
280
     1
270
     1
271
     1
  0
XRECORD
  5
5FB5
102
{ACAD_REACTORS
330
5FB2
102
}
330
5FB2
100
AcDbXrecord
280
     1
270
     1
271
     1
  0
XRECORD
  5
10C74
102
{ACAD_REACTORS
330
10C73
102
}
330
10C73
100
AcDbXrecord
280
     1
102
DISPLAYNAME
  1
Imperial24
102
FLAGS
 90
        0
  0
CELLSTYLEMAP
  5
10C63
102
{ACAD_REACTORS
330
6034
102
}
330
6034
100
AcDbCellStyleMap
 90
        3
300
CELLSTYLE
  1
TABLEFORMAT_BEGIN
 90
        5
170
     1
 91
        0
 92
    32768
 62
   257
 93
        1
300
CONTENTFORMAT
  1
CONTENTFORMAT_BEGIN
 90
        0
 91
        0
 92
        4
 93
        0
300

 40
0.0
140
1.0
 94
        5
 62
     0
340
17
144
0.25
309
CONTENTFORMAT_END
171
     1
301
MARGIN
  1
CELLMARGIN_BEGIN
 40
0.06
 40
0.06
 40
0.06
 40
0.06
 40
0.18
 40
0.18
309
CELLMARGIN_END
 94
        6
 95
        1
302
GRIDFORMAT
  1
GRIDFORMAT_BEGIN
 90
        0
 91
        1
 62
     0
 92
       -2
340
0
 93
        0
 40
0.045
309
GRIDFORMAT_END
 95
        2
302
GRIDFORMAT
  1
GRIDFORMAT_BEGIN
 90
        0
 91
        1
 62
     0
 92
       -2
340
0
 93
        0
 40
0.045
309
GRIDFORMAT_END
 95
        4
302
GRIDFORMAT
  1
GRIDFORMAT_BEGIN
 90
        0
 91
        1
 62
     0
 92
       -2
340
0
 93
        0
 40
0.045
309
GRIDFORMAT_END
 95
        8
302
GRIDFORMAT
  1
GRIDFORMAT_BEGIN
 90
        0
 91
        1
 62
     0
 92
       -2
340
0
 93
        0
 40
0.045
309
GRIDFORMAT_END
 95
       16
302
GRIDFORMAT
  1
GRIDFORMAT_BEGIN
 90
        0
 91
        1
 62
     0
 92
       -2
340
0
 93
        0
 40
0.045
309
GRIDFORMAT_END
 95
       32
302
GRIDFORMAT
  1
GRIDFORMAT_BEGIN
 90
        0
 91
        1
 62
     0
 92
       -2
340
0
 93
        0
 40
0.045
309
GRIDFORMAT_END
309
TABLEFORMAT_END
  1
CELLSTYLE_BEGIN
 90
        1
 91
        1
300
_TITLE
309
CELLSTYLE_END
300
CELLSTYLE
  1
TABLEFORMAT_BEGIN
 90
        5
170
     1
 91
        0
 92
        0
 62
   257
 93
        1
300
CONTENTFORMAT
  1
CONTENTFORMAT_BEGIN
 90
        0
 91
        0
 92
        4
 93
        0
300

 40
0.0
140
1.0
 94
        5
 62
     0
340
17
144
0.18
309
CONTENTFORMAT_END
171
     1
301
MARGIN
  1
CELLMARGIN_BEGIN
 40
0.06
 40
0.06
 40
0.06
 40
0.06
 40
0.18
 40
0.18
309
CELLMARGIN_END
 94
        6
 95
        1
302
GRIDFORMAT
  1
GRIDFORMAT_BEGIN
 90
        0
 91
        1
 62
     0
 92
       -2
340
0
 93
        0
 40
0.045
309
GRIDFORMAT_END
 95
        2
302
GRIDFORMAT
  1
GRIDFORMAT_BEGIN
 90
        0
 91
        1
 62
     0
 92
       -2
340
0
 93
        0
 40
0.045
309
GRIDFORMAT_END
 95
        4
302
GRIDFORMAT
  1
GRIDFORMAT_BEGIN
 90
        0
 91
        1
 62
     0
 92
       -2
340
0
 93
        0
 40
0.045
309
GRIDFORMAT_END
 95
        8
302
GRIDFORMAT
  1
GRIDFORMAT_BEGIN
 90
        0
 91
        1
 62
     0
 92
       -2
340
0
 93
        0
 40
0.045
309
GRIDFORMAT_END
 95
       16
302
GRIDFORMAT
  1
GRIDFORMAT_BEGIN
 90
        0
 91
        1
 62
     0
 92
       -2
340
0
 93
        0
 40
0.045
309
GRIDFORMAT_END
 95
       32
302
GRIDFORMAT
  1
GRIDFORMAT_BEGIN
 90
        0
 91
        1
 62
     0
 92
       -2
340
0
 93
        0
 40
0.045
309
GRIDFORMAT_END
309
TABLEFORMAT_END
  1
CELLSTYLE_BEGIN
 90
        2
 91
        1
300
_HEADER
309
CELLSTYLE_END
300
CELLSTYLE
  1
TABLEFORMAT_BEGIN
 90
        5
170
     1
 91
        0
 92
        0
 62
   257
 93
        1
300
CONTENTFORMAT
  1
CONTENTFORMAT_BEGIN
 90
        0
 91
        0
 92
        4
 93
        0
300

 40
0.0
140
1.0
 94
        2
 62
     0
340
17
144
0.18
309
CONTENTFORMAT_END
171
     1
301
MARGIN
  1
CELLMARGIN_BEGIN
 40
0.06
 40
0.06
 40
0.06
 40
0.06
 40
0.18
 40
0.18
309
CELLMARGIN_END
 94
        6
 95
        1
302
GRIDFORMAT
  1
GRIDFORMAT_BEGIN
 90
        0
 91
        1
 62
     0
 92
       -2
340
0
 93
        0
 40
0.045
309
GRIDFORMAT_END
 95
        2
302
GRIDFORMAT
  1
GRIDFORMAT_BEGIN
 90
        0
 91
        1
 62
     0
 92
       -2
340
0
 93
        0
 40
0.045
309
GRIDFORMAT_END
 95
        4
302
GRIDFORMAT
  1
GRIDFORMAT_BEGIN
 90
        0
 91
        1
 62
     0
 92
       -2
340
0
 93
        0
 40
0.045
309
GRIDFORMAT_END
 95
        8
302
GRIDFORMAT
  1
GRIDFORMAT_BEGIN
 90
        0
 91
        1
 62
     0
 92
       -2
340
0
 93
        0
 40
0.045
309
GRIDFORMAT_END
 95
       16
302
GRIDFORMAT
  1
GRIDFORMAT_BEGIN
 90
        0
 91
        1
 62
     0
 92
       -2
340
0
 93
        0
 40
0.045
309
GRIDFORMAT_END
 95
       32
302
GRIDFORMAT
  1
GRIDFORMAT_BEGIN
 90
        0
 91
        1
 62
     0
 92
       -2
340
0
 93
        0
 40
0.045
309
GRIDFORMAT_END
309
TABLEFORMAT_END
  1
CELLSTYLE_BEGIN
 90
        3
 91
        2
300
_DATA
309
CELLSTYLE_END
  0
ENDSEC
  0
SECTION
  2
ACDSDATA
 70
     2
 71
     8
  0
ACDSSCHEMA
 90
        0
  1
AcDb_Thumbnail_Schema
  2
AcDbDs::ID
280
    10
 91
        8
  2
Thumbnail_Data
280
    15
 91
        0
101
ACDSRECORD
 95
        0
 90
        1
  2
AcDbDs::TreatedAsObjectData
280
     1
291
     1
101
ACDSRECORD
 95
        0
 90
        2
  2
AcDbDs::Legacy
280
     1
291
     1
101
ACDSRECORD
  1
AcDbDs::ID
 90
        3
  2
AcDs:Indexable
280
     1
291
     1
101
ACDSRECORD
  1
AcDbDs::ID
 90
        4
  2
AcDbDs::HandleAttribute
280
     7
282
     1
  0
ACDSSCHEMA
 90
        1
  1
AcDbDs::TreatedAsObjectDataSchema
  2
AcDbDs::TreatedAsObjectData
280
     1
 91
        0
  0
ACDSSCHEMA
 90
        2
  1
AcDbDs::LegacySchema
  2
AcDbDs::Legacy
280
     1
 91
        0
  0
ACDSSCHEMA
 90
        3
  1
AcDbDs::IndexedPropertySchema
  2
AcDs:Indexable
280
     1
 91
        0
  0
ACDSSCHEMA
 90
        4
  1
AcDbDs::HandleAttributeSchema
  2
AcDbDs::HandleAttribute
280
     7
 91
        1
284
     1
  0
ACDSRECORD
 90
        0
  2
AcDbDs::ID
280
    10
320
21
  2
Thumbnail_Data
280
    15
 94
     1961
310
89504E470D0A1A0A0000000D49484452000000C6000001000803000000DF83F97200000300504C5445FFFFFFFFFFFFFFFFFF0000000000000000000000000000000000000000000000000000330000660000990000CC0000FF0033000033330033660033990033CC0033FF0066000066330066660066990066CC0066FF0099
310
000099330099660099990099CC0099FF00CC0000CC3300CC6600CC9900CCCC00CCFF00FF0000FF3300FF6600FF9900FFCC00FFFF3300003300333300663300993300CC3300FF3333003333333333663333993333CC3333FF3366003366333366663366993366CC3366FF3399003399333399663399993399CC3399FF33CC00
310
33CC3333CC6633CC9933CCCC33CCFF33FF0033FF3333FF6633FF9933FFCC33FFFF6600006600336600666600996600CC6600FF6633006633336633666633996633CC6633FF6666006666336666666666996666CC6666FF6699006699336699666699996699CC6699FF66CC0066CC3366CC6666CC9966CCCC66CCFF66FF0066
310
FF3366FF6666FF9966FFCC66FFFF9900009900339900669900999900CC9900FF9933009933339933669933999933CC9933FF9966009966339966669966999966CC9966FF9999009999339999669999999999CC9999FF99CC0099CC3399CC6699CC9999CCCC99CCFF99FF0099FF3399FF6699FF9999FFCC99FFFFCC0000CC00
310
33CC0066CC0099CC00CCCC00FFCC3300CC3333CC3366CC3399CC33CCCC33FFCC6600CC6633CC6666CC6699CC66CCCC66FFCC9900CC9933CC9966CC9999CC99CCCC99FFCCCC00CCCC33CCCC66CCCC99CCCCCCCCCCFFCCFF00CCFF33CCFF66CCFF99CCFFCCCCFFFFFF0000FF0033FF0066FF0099FF00CCFF00FFFF3300FF3333
310
FF3366FF3399FF33CCFF33FFFF6600FF6633FF6666FF6699FF66CCFF66FFFF9900FF9933FF9966FF9999FF99CCFF99FFFFCC00FFCC33FFCC66FFCC99FFCCCCFFCCFFFFFF00FFFF33FFFF66FFFF99FFFFCCFFFFFF0000000D0D0D1A1A1A2828283535354343435050505D5D5D6B6B6B787878868686939393A1A1A1AEAEAEBB
310
BBBBC9C9C9D6D6D6E4E4E4F1F1F1FFFFFF000000000000000000000000000000000000000000000000000000000000AD4AB4E4000004644944415478DAED9DCB72E4200C45F9FF6FEC9596A97C445289BB8341C2404B4622979A4ACD8CB3F031F7C8E6E1EEF4F9B141FB4C9F6983F68341443F3FA2FE7C62C4EE8A27460286
310
230CDA4471602054501C950A8A0303950A1808152A152A151407062A1530102A542A840A8A0303950A1808152A154205C551A9A03830102A542A840A8AA352417160A0523DB74C7A6C7B542ADA2354C000C63A8C040C840A18C080E2C0801BC000061447A502063050A9808150010318505C1DE3E1B18D87EAE1B033FE3386
310
BFA5A6390C777E3F261407C67A0C02063080814A8550010318503C26C6E8B6AD85A1BA71739A29C66D1302C0D80843547CFD1E4F9D4A45C2F5A4F24F750EC78770BEEBB84EA8640CAA5948FA0D728BC122E4E74B074775C0576F94A12A85A6A33FE83DD3EF0ED5E1E8EBBA937460C5C3881C2AB1D41CE72B1EF08341F9A5CE
310
6C39FDF515A7F2809B50115BA0F2F34D1288238CD26C06842490D10E31C320E68E40F5D52E412693658971AA5149E89017C85B8A58294EA7FE60CE4D57111B8C5F82DF67A8F261CE44119B501D894A549EA195222618CF44117386368A1860FC258ABFD46D90B9DBA10D06D33D89C99D9EEBFA8A9F1295E40E5155441BA3AC
310
512D90962234962CED50E5358AAFB426AE2B63B089BA4111558CAA4671CFBC95221AB7436D0C710465EBBAA6E2ED44992AA2887195284B451443759D283B4534DDA0AEBE30514403835E8A0FCC62EADE0E553088CEC33D6590FC462A28A2A1F88191CF1E0CAD06B41529FFA33AA08D91F504E92952E788DEC3E8AA5434386C
310
BB4C1683C81D30AB54BDC9BA00E11EF8AB039ABD513ED3928A22C45217075431E4CB3A733B9496C8B803AAC3260E64365963B39FCAA3BFD1519B0C6287D135A550077D4E91C5185AC95A8DA194ACF518E598670A64A9E2C298672425533B7ACCD6FE669365BF123BBA68360332B9306EBA2ECE28624361BCBC9F86E7307D62
310
8C256B7EEF8BED2E85B164DDB483670E83D9B743A44C611EAA7E102FDBC29AF7ADCB07710F1B58F3B1B8005229524E34F9C1A074DEE4D59FAC77B74C6BCFA8A7D676BB1A4489421983D819F0862233638B3BDCC8D62EBB1551D884AFBBDA94EF1A1C4E96170CCA36893493456F4C1E18629C66D4899D1D63155983D150BCB1
310
839CE8A243FC609C86CFD47583FE03F1E3464AA9556CDB8AB8C31807D17AE949FD3514A9FE90FA9B2BA6186940913518A9F3A5A0EE64F9C6E806F11CAA0145FC633414A148183DAE87C0B856C4BBE29D8A84C1682B1224545720913086EEEB9E31469F18DD62345C8FA1F84D1D721B862DC8ADAFBD8B20B1302445C261F01D
310
120F43E7DDD1958ACB2031312A4522868AE990B018F21ECE6018D21ECE7018578BB76B145FDAF0497AC00885A1FA79600B31AA7F9A7D229AA5E2DB62FCF750113080E119230163AB506DF23012B237AEC1826260D8048C46A8F6F836147F6D06638F2F3C4A1E1BBEEF2F2406BE610E18C040A542A880010C280E0C840A18C0
310
80E2A854C000062A1530102A60EC8DE1B63D3F3BA7FDF3C088DFBE313E3668DF185BB42FAB339793538DE9010000000049454E44AE426082
  0
ACDSRECORD
 90
        0
  2
AcDbDs::ID
280
    10
320
20
  2
Thumbnail_Data
280
    15
 94
     1786
310
89504E470D0A1A0A0000000D494844520000010000000084080300000048FA052E00000300504C5445212830FFFFFF2128300000000000000000000000000000000000000000000000000000330000660000990000CC0000FF0033000033330033660033990033CC0033FF0066000066330066660066990066CC0066FF0099
310
000099330099660099990099CC0099FF00CC0000CC3300CC6600CC9900CCCC00CCFF00FF0000FF3300FF6600FF9900FFCC00FFFF3300003300333300663300993300CC3300FF3333003333333333663333993333CC3333FF3366003366333366663366993366CC3366FF3399003399333399663399993399CC3399FF33CC00
310
33CC3333CC6633CC9933CCCC33CCFF33FF0033FF3333FF6633FF9933FFCC33FFFF6600006600336600666600996600CC6600FF6633006633336633666633996633CC6633FF6666006666336666666666996666CC6666FF6699006699336699666699996699CC6699FF66CC0066CC3366CC6666CC9966CCCC66CCFF66FF0066
310
FF3366FF6666FF9966FFCC66FFFF9900009900339900669900999900CC9900FF9933009933339933669933999933CC9933FF9966009966339966669966999966CC9966FF9999009999339999669999999999CC9999FF99CC0099CC3399CC6699CC9999CCCC99CCFF99FF0099FF3399FF6699FF9999FFCC99FFFFCC0000CC00
310
33CC0066CC0099CC00CCCC00FFCC3300CC3333CC3366CC3399CC33CCCC33FFCC6600CC6633CC6666CC6699CC66CCCC66FFCC9900CC9933CC9966CC9999CC99CCCC99FFCCCC00CCCC33CCCC66CCCC99CCCCCCCCCCFFCCFF00CCFF33CCFF66CCFF99CCFFCCCCFFFFFF0000FF0033FF0066FF0099FF00CCFF00FFFF3300FF3333
310
FF3366FF3399FF33CCFF33FFFF6600FF6633FF6666FF6699FF66CCFF66FFFF9900FF9933FF9966FF9999FF99CCFF99FFFFCC00FFCC33FFCC66FFCC99FFCCCCFFCCFFFFFF00FFFF33FFFF66FFFF99FFFFCCFFFFFF0000000D0D0D1A1A1A2828283535354343435050505D5D5D6B6B6B787878868686939393A1A1A1AEAEAEBB
310
BBBBC9C9C9D6D6D6E4E4E4F1F1F1FFFFFF0000000000000000000000000000000000000000000000000000000000002E4550F10000036D4944415478DAED9D4B6EC3300C44D5FB5FB1D7E0BE4063C79645EA6F7B4452C8A28016099F39A32FDD10FADA2F5C0BCFB6A7BF0FEE073900071008A8BD0300E7F13B0007E0001C80
310
0370000EC001380007E0001C002A80CF9A4D3980D125EDFA004662B00E20AC0EE0554B8400F0E80618680610FB6CE2CFF5F7D3DE336283D000B6B0B7CF27568910290440A7871CF6E77F8A94BEA9313016A04B207ECAFFC94EA90406CC143A03041BFB062C75E800C058DCF58F98449F0E6001106B711202E68FC5019C473F
310
21522972D20080D2A74FD78963B1636100748CFF4C5C5375000980220150BAEC9B880011C057F9E9FC7DBE150002A0E3D13363DB6C2BC003C04D70CFB14CD6011C80F3F01F1E4080068098D51D259A96AD20B45A01188038FF839804A2E2A9D50AB00024F91F6ED7011400CAEC6EDC850009C029FFB90DBC7BAC000800B3F7
310
514A8209568003802A76F76ED0010C00DEFFEF47802881E2C03DD30A703220ECBBDF450253AD00C903AA17B13375009401746CFE3F88E07D009F98E93806A844506305971341CE0A70001CC1572EE4CB56209A202280680C98A403A627ED809340CB965E0101B3A44C3A802642F1EC7786151087EBD20135130CC9E16F9F15
310
88D721980EA499608AA04F074D474360FB019700FAAC605D00A15707B1152C0CA01FC13909960620CC559A102C0E604007C48E7ECB011842D07C7518F57E4017829E5B52B85764DAAD40D92DB1E62450774FB01141E755516400AC0E686EFCE0009824C8A35207A056072A6F8B37E860A0E4026D43842A754093E2C73A1811
310
6B1FF256305A6F04753426ED8B6774305672047532B4AFE4E40B128C0E064BAEE02490717A16C168C9199C0476276CB7022512C8D73EA4BB866A00705561153AD00140AC6C2C2350016083C0C65CD2811E00D2085048024D00BA10E802205DE5A14C55A1320092BD13CD5B006303102783640640A5156806506505BA015458
310
817200652B500FA064050600E4ADC00400E982EF9439F01200326E680540F5C4482F809605825200392BB001E04E04CBBC4DAE7A99A8158058F6436600C8352F5600F0084C01E0ACC01880CCBB43AC00C814061901902B0C3202205718640440AE30684D00AF3507E0001C002680892F905F14C04FD4A8FB0DDC0E400D0097
310
C02D29E0001C800370000EC0012C31153606A08CC41C005F0E6B0260FD7F8F633507F0F4F7C1B5CE40FE007FE290FB8A0BE1B40000000049454E44AE4260827DC1011601D8BE0B7806DCD5071CC0011CC0011C608153E1CD002A487603F0CB6107B00340D61E07E06B0EF0E4DFA26C5DBBF203D3CAC32349C5B76E00000000
310
49454E44AE426082
  0
ENDSEC
  0
EOF
